  0
SECTION
  2
HEADER
  9
$ACADVER
  1
AC1024
  9
$ACADMAINTVER
 70
   226
  9
$DWGCODEPAGE
  3
ANSI_1252
  9
$INSBASE
 10
0.0
 20
0.0
 30
0.0
  9
$EXTMIN
 10
1.000000000000000E+20
 20
1.000000000000000E+20
 30
1.000000000000000E+20
  9
$EXTMAX
 10
-1.000000000000000E+20
 20
-1.000000000000000E+20
 30
-1.000000000000000E+20
  9
$LIMMIN
 10
0.0
 20
0.0
  9
$LIMMAX
 10
12.0
 20
9.0
  9
$ORTHOMODE
 70
     0
  9
$REGENMODE
 70
     1
  9
$FILLMODE
 70
     1
  9
$QTEXTMODE
 70
     0
  9
$MIRRTEXT
 70
     1
  9
$LTSCALE
 40
1.0
  9
$ATTMODE
 70
     1
  9
$TEXTSIZE
 40
0.2
  9
$TRACEWID
 40
0.05
  9
$TEXTSTYLE
  7
Standard
  9
$CLAYER
  8
0
  9
$CELTYPE
  6
ByLayer
  9
$CECOLOR
 62
   256
  9
$CELTSCALE
 40
1.0
  9
$DISPSILH
 70
     0
  9
$DIMSCALE
 40
1.0
  9
$DIMASZ
 40
0.18
  9
$DIMEXO
 40
0.0625
  9
$DIMDLI
 40
0.38
  9
$DIMRND
 40
0.0
  9
$DIMDLE
 40
0.0
  9
$DIMEXE
 40
0.18
  9
$DIMTP
 40
0.0
  9
$DIMTM
 40
0.0
  9
$DIMTXT
 40
0.18
  9
$DIMCEN
 40
0.09
  9
$DIMTSZ
 40
0.0
  9
$DIMTOL
 70
     0
  9
$DIMLIM
 70
     0
  9
$DIMTIH
 70
     1
  9
$DIMTOH
 70
     1
  9
$DIMSE1
 70
     0
  9
$DIMSE2
 70
     0
  9
$DIMTAD
 70
     0
  9
$DIMZIN
 70
     0
  9
$DIMBLK
  1

  9
$DIMASO
 70
     1
  9
$DIMSHO
 70
     1
  9
$DIMPOST
  1

  9
$DIMAPOST
  1

  9
$DIMALT
 70
     0
  9
$DIMALTD
 70
     2
  9
$DIMALTF
 40
25.4
  9
$DIMLFAC
 40
1.0
  9
$DIMTOFL
 70
     0
  9
$DIMTVP
 40
0.0
  9
$DIMTIX
 70
     0
  9
$DIMSOXD
 70
     0
  9
$DIMSAH
 70
     0
  9
$DIMBLK1
  1

  9
$DIMBLK2
  1

  9
$DIMSTYLE
  2
Standard
  9
$DIMCLRD
 70
     0
  9
$DIMCLRE
 70
     0
  9
$DIMCLRT
 70
     0
  9
$DIMTFAC
 40
1.0
  9
$DIMGAP
 40
0.09
  9
$DIMJUST
 70
     0
  9
$DIMSD1
 70
     0
  9
$DIMSD2
 70
     0
  9
$DIMTOLJ
 70
     1
  9
$DIMTZIN
 70
     0
  9
$DIMALTZ
 70
     0
  9
$DIMALTTZ
 70
     0
  9
$DIMUPT
 70
     0
  9
$DIMDEC
 70
     4
  9
$DIMTDEC
 70
     4
  9
$DIMALTU
 70
     2
  9
$DIMALTTD
 70
     2
  9
$DIMTXSTY
  7
Standard
  9
$DIMAUNIT
 70
     0
  9
$DIMADEC
 70
     0
  9
$DIMALTRND
 40
0.0
  9
$DIMAZIN
 70
     0
  9
$DIMDSEP
 70
    46
  9
$DIMATFIT
 70
     3
  9
$DIMFRAC
 70
     0
  9
$DIMLDRBLK
  1

  9
$DIMLUNIT
 70
     2
  9
$DIMLWD
 70
    -2
  9
$DIMLWE
 70
    -2
  9
$DIMTMOVE
 70
     0
  9
$DIMFXL
 40
1.0
  9
$DIMFXLON
 70
     0
  9
$DIMJOGANG
 40
0.7853981633974483
  9
$DIMTFILL
 70
     0
  9
$DIMTFILLCLR
 70
     0
  9
$DIMARCSYM
 70
     0
  9
$DIMLTYPE
  6

  9
$DIMLTEX1
  6

  9
$DIMLTEX2
  6

  9
$DIMTXTDIRECTION
 70
     0
  9
$LUNITS
 70
     2
  9
$LUPREC
 70
     4
  9
$SKETCHINC
 40
0.1
  9
$FILLETRAD
 40
0.5
  9
$AUNITS
 70
     0
  9
$AUPREC
 70
     0
  9
$MENU
  1
.
  9
$ELEVATION
 40
0.0
  9
$PELEVATION
 40
0.0
  9
$THICKNESS
 40
0.0
  9
$LIMCHECK
 70
     0
  9
$CHAMFERA
 40
0.5
  9
$CHAMFERB
 40
0.5
  9
$CHAMFERC
 40
1.0
  9
$CHAMFERD
 40
0.0
  9
$SKPOLY
 70
     0
  9
$TDCREATE
 40
2451380.888761574
  9
$TDUCREATE
 40
2451380.805432396
  9
$TDUPDATE
 40
2451380.924513889
  9
$TDUUPDATE
 40
2451380.841180556
  9
$TDINDWG
 40
0.0075717940
  9
$TDUSRTIMER
 40
0.0075627546
  9
$USRTIMER
 70
     1
  9
$ANGBASE
 50
0.0
  9
$ANGDIR
 70
     0
  9
$PDMODE
 70
     0
  9
$PDSIZE
 40
0.0
  9
$PLINEWID
 40
0.0
  9
$SPLFRAME
 70
     0
  9
$SPLINETYPE
 70
     6
  9
$SPLINESEGS
 70
     8
  9
$HANDSEED
  5
142
  9
$SURFTAB1
 70
     6
  9
$SURFTAB2
 70
     6
  9
$SURFTYPE
 70
     6
  9
$SURFU
 70
     6
  9
$SURFV
 70
     6
  9
$UCSBASE
  2

  9
$UCSNAME
  2

  9
$UCSORG
 10
0.0
 20
0.0
 30
0.0
  9
$UCSXDIR
 10
1.0
 20
0.0
 30
0.0
  9
$UCSYDIR
 10
0.0
 20
1.0
 30
0.0
  9
$UCSORTHOREF
  2

  9
$UCSORTHOVIEW
 70
     0
  9
$UCSORGTOP
 10
0.0
 20
0.0
 30
0.0
  9
$UCSORGBOTTOM
 10
0.0
 20
0.0
 30
0.0
  9
$UCSORGLEFT
 10
0.0
 20
0.0
 30
0.0
  9
$UCSORGRIGHT
 10
0.0
 20
0.0
 30
0.0
  9
$UCSORGFRONT
 10
0.0
 20
0.0
 30
0.0
  9
$UCSORGBACK
 10
0.0
 20
0.0
 30
0.0
  9
$PUCSBASE
  2

  9
$PUCSNAME
  2

  9
$PUCSORG
 10
0.0
 20
0.0
 30
0.0
  9
$PUCSXDIR
 10
1.0
 20
0.0
 30
0.0
  9
$PUCSYDIR
 10
0.0
 20
1.0
 30
0.0
  9
$PUCSORTHOREF
  2

  9
$PUCSORTHOVIEW
 70
     0
  9
$PUCSORGTOP
 10
0.0
 20
0.0
 30
0.0
  9
$PUCSORGBOTTOM
 10
0.0
 20
0.0
 30
0.0
  9
$PUCSORGLEFT
 10
0.0
 20
0.0
 30
0.0
  9
$PUCSORGRIGHT
 10
0.0
 20
0.0
 30
0.0
  9
$PUCSORGFRONT
 10
0.0
 20
0.0
 30
0.0
  9
$PUCSORGBACK
 10
0.0
 20
0.0
 30
0.0
  9
$USERI1
 70
     0
  9
$USERI2
 70
     0
  9
$USERI3
 70
     0
  9
$USERI4
 70
     0
  9
$USERI5
 70
     0
  9
$USERR1
 40
0.0
  9
$USERR2
 40
0.0
  9
$USERR3
 40
0.0
  9
$USERR4
 40
0.0
  9
$USERR5
 40
0.0
  9
$WORLDVIEW
 70
     1
  9
$SHADEDGE
 70
     3
  9
$SHADEDIF
 70
    70
  9
$TILEMODE
 70
     1
  9
$MAXACTVP
 70
    64
  9
$PINSBASE
 10
0.0
 20
0.0
 30
0.0
  9
$PLIMCHECK
 70
     0
  9
$PEXTMIN
 10
1.000000000000000E+20
 20
1.000000000000000E+20
 30
1.000000000000000E+20
  9
$PEXTMAX
 10
-1.000000000000000E+20
 20
-1.000000000000000E+20
 30
-1.000000000000000E+20
  9
$PLIMMIN
 10
0.0
 20
0.0
  9
$PLIMMAX
 10
12.0
 20
9.0
  9
$UNITMODE
 70
     0
  9
$VISRETAIN
 70
     1
  9
$PLINEGEN
 70
     0
  9
$PSLTSCALE
 70
     1
  9
$TREEDEPTH
 70
  3020
  9
$CMLSTYLE
  2
Standard
  9
$CMLJUST
 70
     0
  9
$CMLSCALE
 40
1.0
  9
$PROXYGRAPHICS
 70
     1
  9
$MEASUREMENT
 70
     1
  9
$CELWEIGHT
370
    -1
  9
$ENDCAPS
280
     0
  9
$JOINSTYLE
280
     0
  9
$LWDISPLAY
290
     0
  9
$INSUNITS
 70
     4
  9
$HYPERLINKBASE
  1

  9
$STYLESHEET
  1

  9
$XEDIT
290
     1
  9
$CEPSNTYPE
380
     0
  9
$PSTYLEMODE
290
     1
  9
$FINGERPRINTGUID
  2
{12F50282-3ED8-11D3-A8B7-0060B0F84BC6}
  9
$VERSIONGUID
  2
{12F50293-3ED8-11D3-A8B7-0060B0F84BC6}
  9
$EXTNAMES
290
     1
  9
$PSVPSCALE
 40
0.0
  9
$OLESTARTUP
290
     0
  9
$SORTENTS
280
   127
  9
$INDEXCTL
280
     0
  9
$HIDETEXT
280
     0
  9
$XCLIPFRAME
280
     2
  9
$HALOGAP
280
     0
  9
$OBSCOLOR
 70
   257
  9
$OBSLTYPE
280
     0
  9
$INTERSECTIONDISPLAY
280
     0
  9
$INTERSECTIONCOLOR
 70
   257
  9
$DIMASSOC
280
     1
  9
$PROJECTNAME
  1

  9
$CAMERADISPLAY
290
     0
  9
$LENSLENGTH
 40
50.0
  9
$CAMERAHEIGHT
 40
0.0
  9
$STEPSPERSEC
 40
2.0
  9
$STEPSIZE
 40
6.0
  9
$3DDWFPREC
 40
2.0
  9
$PSOLWIDTH
 40
0.25
  9
$PSOLHEIGHT
 40
4.0
  9
$LOFTANG1
 40
1.570796326794896
  9
$LOFTANG2
 40
1.570796326794896
  9
$LOFTMAG1
 40
0.0
  9
$LOFTMAG2
 40
0.0
  9
$LOFTPARAM
 70
     7
  9
$LOFTNORMALS
280
     1
  9
$LATITUDE
 40
37.795
  9
$LONGITUDE
 40
-122.394
  9
$NORTHDIRECTION
 40
0.0
  9
$TIMEZONE
 70
 -8000
  9
$LIGHTGLYPHDISPLAY
280
     1
  9
$TILEMODELIGHTSYNCH
280
     1
  9
$CMATERIAL
347
AB
  9
$SOLIDHIST
280
     0
  9
$SHOWHIST
280
     1
  9
$DWFFRAME
280
     2
  9
$DGNFRAME
280
     0
  9
$REALWORLDSCALE
290
     1
  9
$INTERFERECOLOR
 62
     1
  9
$INTERFEREOBJVS
345
CD
  9
$INTERFEREVPVS
346
CA
  9
$CSHADOW
280
     0
  9
$SHADOWPLANELOCATION
 40
0.0
  0
ENDSEC
  0
SECTION
  2
CLASSES
  0
CLASS
  1
ACDBDICTIONARYWDFLT
  2
AcDbDictionaryWithDefault
  3
ObjectDBX Classes
 90
        0
 91
        1
280
     0
281
     0
  0
CLASS
  1
ACDBPLACEHOLDER
  2
AcDbPlaceHolder
  3
ObjectDBX Classes
 90
        0
 91
        2
280
     0
281
     0
  0
CLASS
  1
LAYOUT
  2
AcDbLayout
  3
ObjectDBX Classes
 90
        0
 91
        3
280
     0
281
     0
  0
CLASS
  1
MATERIAL
  2
AcDbMaterial
  3
ObjectDBX Classes
 90
     1153
 91
        3
280
     0
281
     0
  0
CLASS
  1
VISUALSTYLE
  2
AcDbVisualStyle
  3
ObjectDBX Classes
 90
     4095
 91
       24
280
     0
281
     0
  0
CLASS
  1
TABLESTYLE
  2
AcDbTableStyle
  3
ObjectDBX Classes
 90
     4095
 91
        1
280
     0
281
     0
  0
CLASS
  1
SCALE
  2
AcDbScale
  3
ObjectDBX Classes
 90
     1153
 91
       17
280
     0
281
     0
  0
CLASS
  1
MLEADERSTYLE
  2
AcDbMLeaderStyle
  3
ACDB_MLEADERSTYLE_CLASS
 90
     4095
 91
        1
280
     0
281
     0
  0
CLASS
  1
ACDBSECTIONVIEWSTYLE
  2
AcDbSectionViewStyle
  3
ObjectDBX Classes
 90
     1025
 91
        1
280
     0
281
     0
  0
CLASS
  1
ACDBDETAILVIEWSTYLE
  2
AcDbDetailViewStyle
  3
ObjectDBX Classes
 90
     1025
 91
        1
280
     0
281
     0
  0
CLASS
  1
MESH
  2
AcDbSubDMesh
  3
ObjectDBX Classes
 90
        0
 91
        4
280
     0
281
     1
  0
CLASS
  1
DICTIONARYVAR
  2
AcDbDictionaryVar
  3
ObjectDBX Classes
 90
        0
 91
        9
280
     0
281
     0
  0
CLASS
  1
CELLSTYLEMAP
  2
AcDbCellStyleMap
  3
ObjectDBX Classes
 90
     1152
 91
        1
280
     0
281
     0
  0
ENDSEC
  0
SECTION
  2
TABLES
  0
TABLE
  2
VPORT
  5
8
330
0
100
AcDbSymbolTable
 70
     1
  0
VPORT
  5
A8
330
8
100
AcDbSymbolTableRecord
100
AcDbViewportTableRecord
  2
*Active
 70
     0
 10
0.0
 20
0.0
 11
1.0
 21
1.0
 12
-212.4854583740234
 22
980.8165283203125
 13
0.0
 23
0.0
 14
0.5
 24
0.5
 15
0.5
 25
0.5
 16
-1.0
 26
-1.0
 36
1.0
 17
0.0
 27
0.0
 37
0.0
 40
2627.9998426043
 41
0.3466737077531017
 42
50.0
 43
0.0
 44
0.0
 50
0.0
 51
0.0
 71
     0
 72
   100
 73
     1
 74
     3
 75
     0
 76
     0
 77
     0
 78
     0
281
     0
 65
     1
110
0.0
120
0.0
130
0.0
111
1.0
121
0.0
131
0.0
112
0.0
122
1.0
132
0.0
 79
     0
146
0.0
348
C9
 60
     3
 61
     5
292
     1
282
     1
141
0.0
142
0.0
 63
   250
421
  3355443
  0
ENDTAB
  0
TABLE
  2
LTYPE
  5
5
330
0
100
AcDbSymbolTable
 70
     1
  0
LTYPE
  5
14
330
5
100
AcDbSymbolTableRecord
100
AcDbLinetypeTableRecord
  2
ByBlock
 70
     0
  3

 72
    65
 73
     0
 40
0.0
  0
LTYPE
  5
15
330
5
100
AcDbSymbolTableRecord
100
AcDbLinetypeTableRecord
  2
ByLayer
 70
     0
  3

 72
    65
 73
     0
 40
0.0
  0
LTYPE
  5
16
330
5
100
AcDbSymbolTableRecord
100
AcDbLinetypeTableRecord
  2
Continuous
 70
     0
  3
Solid line
 72
    65
 73
     0
 40
0.0
  0
ENDTAB
  0
TABLE
  2
LAYER
  5
2
330
0
100
AcDbSymbolTable
 70
     2
  0
LAYER
  5
10
330
2
100
AcDbSymbolTableRecord
100
AcDbLayerTableRecord
  2
0
 70
     0
 62
   153
420
  5804257
  6
Continuous
370
    -3
390
F
347
BB
  0
LAYER
  5
2B
330
2
100
AcDbSymbolTableRecord
100
AcDbLayerTableRecord
  2
ASHADE
 70
     4
 62
     7
  6
Continuous
370
    -3
390
2D
347
BB
  0
ENDTAB
  0
TABLE
  2
STYLE
  5
3
330
0
100
AcDbSymbolTable
 70
     2
  0
STYLE
  5
11
330
3
100
AcDbSymbolTableRecord
100
AcDbTextStyleTableRecord
  2
Standard
 70
     0
 40
0.0
 41
1.0
 50
0.0
 71
     0
 42
0.2
  3
txt
  4

  0
STYLE
  5
2C
330
3
100
AcDbSymbolTableRecord
100
AcDbTextStyleTableRecord
  2
ASHADE
 70
     0
 40
0.2
 41
1.0
 50
0.0
 71
     0
 42
0.2
  3
simplex
  4

  0
ENDTAB
  0
TABLE
  2
VIEW
  5
6
330
0
100
AcDbSymbolTable
 70
     0
  0
ENDTAB
  0
TABLE
  2
UCS
  5
7
330
0
100
AcDbSymbolTable
 70
     0
  0
ENDTAB
  0
TABLE
  2
APPID
  5
9
330
0
100
AcDbSymbolTable
 70
     6
  0
APPID
  5
12
330
9
100
AcDbSymbolTableRecord
100
AcDbRegAppTableRecord
  2
ACAD
 70
     0
  0
APPID
  5
8F
330
9
100
AcDbSymbolTableRecord
100
AcDbRegAppTableRecord
  2
AVE_RENDER
 70
     0
  0
APPID
  5
90
330
9
100
AcDbSymbolTableRecord
100
AcDbRegAppTableRecord
  2
AVE_ENTITY_MATERIAL
 70
     0
  0
APPID
  5
9C
330
9
100
AcDbSymbolTableRecord
100
AcDbRegAppTableRecord
  2
AVE_FINISH
 70
     0
  0
APPID
  5
9D
330
9
100
AcDbSymbolTableRecord
100
AcDbRegAppTableRecord
  2
AVE_MATERIAL
 70
     0
  0
APPID
  5
9E
330
9
100
AcDbSymbolTableRecord
100
AcDbRegAppTableRecord
  2
AVE_GLOBAL
 70
     0
  0
ENDTAB
  0
TABLE
  2
DIMSTYLE
  5
A
330
0
100
AcDbSymbolTable
 70
     1
100
AcDbDimStyleTable
 71
     0
  0
DIMSTYLE
105
27
330
A
100
AcDbSymbolTableRecord
100
AcDbDimStyleTableRecord
  2
Standard
 70
     0
340
11
  0
ENDTAB
  0
TABLE
  2
BLOCK_RECORD
  5
1
330
0
100
AcDbSymbolTable
 70
     6
  0
BLOCK_RECORD
  5
1F
330
1
100
AcDbSymbolTableRecord
100
AcDbBlockTableRecord
  2
*Model_Space
340
22
 70
     0
280
     1
281
     0
  0
BLOCK_RECORD
  5
1B
330
1
100
AcDbSymbolTableRecord
100
AcDbBlockTableRecord
  2
*Paper_Space
340
1E
 70
     0
280
     1
281
     0
  0
BLOCK_RECORD
  5
23
330
1
100
AcDbSymbolTableRecord
100
AcDbBlockTableRecord
  2
*Paper_Space0
340
26
 70
     0
280
     1
281
     0
  0
BLOCK_RECORD
  5
2E
330
1
100
AcDbSymbolTableRecord
100
AcDbBlockTableRecord
  2
direct
340
0
 70
     0
280
     1
281
     0
  0
BLOCK_RECORD
  5
42
330
1
100
AcDbSymbolTableRecord
100
AcDbBlockTableRecord
  2
overhead
340
0
 70
     0
280
     1
281
     0
  0
BLOCK_RECORD
  5
5F
330
1
100
AcDbSymbolTableRecord
100
AcDbBlockTableRecord
  2
sh_spot
340
0
 70
     0
280
     1
281
     0
  0
BLOCK_RECORD
  5
91
330
1
100
AcDbSymbolTableRecord
100
AcDbBlockTableRecord
  2
AVE_RENDER
340
0
102
{BLKREFS
331
94
331
95
331
96
331
97
331
98
331
99
331
9A
331
9B
102
}
 70
     0
280
     1
281
     0
  0
BLOCK_RECORD
  5
9F
330
1
100
AcDbSymbolTableRecord
100
AcDbBlockTableRecord
  2
AVE_GLOBAL
340
0
102
{BLKREFS
331
A2
102
}
 70
     0
280
     1
281
     0
  0
ENDTAB
  0
ENDSEC
  0
SECTION
  2
BLOCKS
  0
BLOCK
  5
20
330
1F
100
AcDbEntity
  8
0
100
AcDbBlockBegin
  2
*Model_Space
 70
     0
 10
0.0
 20
0.0
 30
0.0
  3
*Model_Space
  1

  0
ENDBLK
  5
21
330
1F
100
AcDbEntity
  8
0
100
AcDbBlockEnd
  0
BLOCK
  5
1C
330
1B
100
AcDbEntity
 67
     1
  8
0
100
AcDbBlockBegin
  2
*Paper_Space
 70
     0
 10
0.0
 20
0.0
 30
0.0
  3
*Paper_Space
  1

  0
ENDBLK
  5
1D
330
1B
100
AcDbEntity
 67
     1
  8
0
100
AcDbBlockEnd
  0
BLOCK
  5
24
330
23
100
AcDbEntity
 67
     1
  8
0
100
AcDbBlockBegin
  2
*Paper_Space0
 70
     0
 10
0.0
 20
0.0
 30
0.0
  3
*Paper_Space0
  1

  0
ENDBLK
  5
25
330
23
100
AcDbEntity
 67
     1
  8
0
100
AcDbBlockEnd
  0
BLOCK
  5
40
330
2E
100
AcDbEntity
  8
0
100
AcDbBlockBegin
  2
direct
 70
     2
 10
0.0
 20
0.0
 30
0.0
  3
direct
  1

  0
ATTDEF
  5
2F
330
2E
100
AcDbEntity
  8
ASHADE
  6
Continuous
 62
     1
100
AcDbText
 10
0.0
 20
-0.1
 30
0.0
 40
0.2
  1

  7
ASHADE
 72
     1
 11
0.0
 21
-0.1
 31
0.0
100
AcDbAttributeDefinition
280
     0
  3
Light Name
  2
SNAME
 70
     0
280
     0
  0
ARC
  5
30
330
2E
100
AcDbEntity
  8
ASHADE
  6
Continuous
 62
     7
100
AcDbCircle
 10
0.0
 20
0.0
 30
0.0
 40
0.3
100
AcDbArc
 50
205.6792886194569
 51
334.3207113805431
  0
ARC
  5
31
330
2E
100
AcDbEntity
  8
ASHADE
  6
Continuous
 62
     7
100
AcDbCircle
 10
0.0
 20
0.0
 30
0.0
 40
0.3
100
AcDbArc
 50
25.67928861945685
 51
154.3207113805431
  0
LINE
  5
32
330
2E
100
AcDbEntity
  8
ASHADE
  6
Continuous
 62
     7
100
AcDbLine
 10
-0.21
 20
0.2142428528562855
 30
0.0
 11
-0.21
 21
0.5
 31
0.0
  0
LINE
  5
33
330
2E
100
AcDbEntity
  8
ASHADE
  6
Continuous
 62
     7
100
AcDbLine
 10
-0.11
 20
0.2791057147390572
 30
0.0
 11
-0.11
 21
0.5
 31
0.0
  0
LINE
  5
34
330
2E
100
AcDbEntity
  8
ASHADE
  6
Continuous
 62
     7
100
AcDbLine
 10
0.21
 20
0.2142428528562855
 30
0.0
 11
0.21
 21
0.5
 31
0.0
  0
ATTDEF
  5
35
330
2E
100
AcDbEntity
  8
ASHADE
  6
Continuous
 62
     7
100
AcDbText
 10
0.0
 20
0.25
 30
0.0
 40
0.01
  1

100
AcDbAttributeDefinition
280
     0
  3
Look-at Y
  2
LAY
 70
     1
280
     0
  0
ATTDEF
  5
36
330
2E
100
AcDbEntity
  8
ASHADE
  6
Continuous
 62
     7
100
AcDbText
 10
0.0
 20
0.22
 30
0.0
 40
0.01
  1
1
100
AcDbAttributeDefinition
280
     0
  3
Light Intensity
  2
INTENSITY
 70
     1
280
     0
  0
ATTDEF
  5
37
330
2E
100
AcDbEntity
  8
ASHADE
  6
Continuous
 62
     7
100
AcDbText
 10
0.0
 20
0.16
 30
0.0
 40
0.01
  1
-1
100
AcDbAttributeDefinition
280
     0
  3
*not used*
  2
BEAMD
 70
     1
280
     0
  0
ATTDEF
  5
38
330
2E
100
AcDbEntity
  8
ASHADE
  6
Continuous
 62
     7
100
AcDbText
 10
0.0
 20
0.175
 30
0.0
 40
0.01
  1
-1
100
AcDbAttributeDefinition
280
     0
  3
*not used*
  2
CONED
 70
     1
280
     0
  0
ATTDEF
  5
39
330
2E
100
AcDbEntity
  8
ASHADE
  6
Continuous
 62
     7
100
AcDbText
 10
0.0
 20
0.19
 30
0.0
 40
0.01
  1
0
100
AcDbAttributeDefinition
280
     0
  3
Depth Map Size
  2
CONEA
 70
     1
280
     0
  0
ATTDEF
  5
3A
330
2E
100
AcDbEntity
  8
ASHADE
  6
Continuous
 62
     7
100
AcDbText
 10
0.0
 20
0.2050000000000001
 30
0.0
 40
0.01
  1
1,1,1
100
AcDbAttributeDefinition
280
     0
  3
Light Color (RGB)
  2
COLOR
 70
     1
280
     0
  0
ATTDEF
  5
3B
330
2E
100
AcDbEntity
  8
ASHADE
  6
Continuous
 62
     7
100
AcDbText
 10
0.0
 20
0.235
 30
0.0
 40
0.01
  1

100
AcDbAttributeDefinition
280
     0
  3
Look-at Z
  2
LAZ
 70
     1
280
     0
  0
LINE
  5
3C
330
2E
100
AcDbEntity
  8
ASHADE
  6
Continuous
 62
     7
100
AcDbLine
 10
0.0
 20
0.3
 30
0.0
 11
0.0
 21
0.5
 31
0.0
  0
LINE
  5
3D
330
2E
100
AcDbEntity
  8
ASHADE
  6
Continuous
 62
     7
100
AcDbLine
 10
0.11
 20
0.2791057147390572
 30
0.0
 11
0.11
 21
0.5
 31
0.0
  0
ATTDEF
  5
3E
330
2E
100
AcDbEntity
  8
ASHADE
  6
Continuous
 62
     7
100
AcDbText
 10
0.0
 20
0.265
 30
0.0
 40
0.01
  1

100
AcDbAttributeDefinition
280
     0
  3
Look-at X
  2
LAX
 70
     1
280
     0
  0
ATTDEF
  5
3F
330
2E
100
AcDbEntity
  8
ASHADE
  6
Continuous
 62
     7
100
AcDbText
 10
0.0
 20
0.28
 30
0.0
 40
0.01
  1

100
AcDbAttributeDefinition
280
     0
  3

  2
GNAME
 70
     1
280
     0
  0
ENDBLK
  5
41
330
2E
100
AcDbEntity
  8
0
100
AcDbBlockEnd
  0
BLOCK
  5
5D
330
42
100
AcDbEntity
  8
0
100
AcDbBlockBegin
  2
overhead
 70
     2
 10
0.0
 20
0.0
 30
0.0
  3
overhead
  1

  0
ATTDEF
  5
43
330
42
100
AcDbEntity
  8
ASHADE
  6
Continuous
 62
     1
100
AcDbText
 10
0.0
 20
-0.1
 30
0.0
 40
0.2
  1

  7
ASHADE
 72
     1
 11
0.0
 21
-0.1
 31
0.0
100
AcDbAttributeDefinition
280
     0
  3
Light Name
  2
SNAME
 70
     0
280
     0
  0
ARC
  5
44
330
42
100
AcDbEntity
  8
ASHADE
  6
Continuous
 62
     7
100
AcDbCircle
 10
0.0
 20
0.0
 30
0.0
 40
0.3
100
AcDbArc
 50
205.6792886194569
 51
334.3207113805431
  0
LINE
  5
45
330
42
100
AcDbEntity
  8
ASHADE
  6
Continuous
 62
     7
100
AcDbLine
 10
-0.2041413561583015
 20
-0.2198324514393848
 30
0.0
 11
-0.2721884748777353
 21
-0.2931099352525131
 31
0.0
  0
LINE
  5
46
330
42
100
AcDbEntity
  8
ASHADE
  6
Continuous
 62
     7
100
AcDbLine
 10
-0.1096591641591904
 20
-0.2792398032442862
 30
0.0
 11
-0.1279356915190555
 21
-0.3257797704516673
 31
0.0
  0
LINE
  5
47
330
42
100
AcDbEntity
  8
ASHADE
  6
Continuous
 62
     7
100
AcDbLine
 10
0.0
 20
-0.2999999999999999
 30
0.0
 11
0.0
 21
-0.4
 31
0.0
  0
LINE
  5
48
330
42
100
AcDbEntity
  8
ASHADE
  6
Continuous
 62
     7
100
AcDbLine
 10
0.1096591641591904
 20
-0.2792398032442862
 30
0.0
 11
0.1279356915190555
 21
-0.3257797704516673
 31
0.0
  0
LINE
  5
49
330
42
100
AcDbEntity
  8
ASHADE
  6
Continuous
 62
     7
100
AcDbLine
 10
0.2041413561583015
 20
-0.2198324514393848
 30
0.0
 11
0.2721884748777353
 21
-0.2931099352525131
 31
0.0
  0
ARC
  5
4A
330
42
100
AcDbEntity
  8
ASHADE
  6
Continuous
 62
     7
100
AcDbCircle
 10
0.0
 20
0.0
 30
0.0
 40
0.3
100
AcDbArc
 50
25.67928861945685
 51
154.3207113805431
  0
LINE
  5
4B
330
42
100
AcDbEntity
  8
ASHADE
  6
Continuous
 62
     7
100
AcDbLine
 10
-0.2703701166919155
 20
0.13
 30
0.0
 11
-0.3154318028072347
 21
0.1516666666666666
 31
0.0
  0
LINE
  5
4C
330
42
100
AcDbEntity
  8
ASHADE
  6
Continuous
 62
     7
100
AcDbLine
 10
-0.2703701166919155
 20
-0.13
 30
0.0
 11
-0.3154318028072347
 21
-0.1516666666666666
 31
0.0
  0
LINE
  5
4D
330
42
100
AcDbEntity
  8
ASHADE
  6
Continuous
 62
     7
100
AcDbLine
 10
-0.2041413561583015
 20
0.2198324514393849
 30
0.0
 11
-0.2721884748777353
 21
0.2931099352525131
 31
0.0
  0
LINE
  5
4E
330
42
100
AcDbEntity
  8
ASHADE
  6
Continuous
 62
     7
100
AcDbLine
 10
-0.1096591641591904
 20
0.2792398032442862
 30
0.0
 11
-0.1279356915190555
 21
0.3257797704516674
 31
0.0
  0
LINE
  5
4F
330
42
100
AcDbEntity
  8
ASHADE
  6
Continuous
 62
     7
100
AcDbLine
 10
0.2703701166919155
 20
-0.13
 30
0.0
 11
0.3154318028072347
 21
-0.1516666666666666
 31
0.0
  0
LINE
  5
50
330
42
100
AcDbEntity
  8
ASHADE
  6
Continuous
 62
     7
100
AcDbLine
 10
0.2703701166919155
 20
0.13
 30
0.0
 11
0.3154318028072347
 21
0.1516666666666666
 31
0.0
  0
LINE
  5
51
330
42
100
AcDbEntity
  8
ASHADE
  6
Continuous
 62
     7
100
AcDbLine
 10
0.0
 20
0.3
 30
0.0
 11
0.0
 21
0.4
 31
0.0
  0
ATTDEF
  5
52
330
42
100
AcDbEntity
  8
ASHADE
  6
Continuous
 62
     7
100
AcDbText
 10
0.0
 20
0.22
 30
0.0
 40
0.01
  1
1
100
AcDbAttributeDefinition
280
     0
  3
Light Intensity
  2
INTENSITY
 70
     1
280
     0
  0
ATTDEF
  5
53
330
42
100
AcDbEntity
  8
ASHADE
  6
Continuous
 62
     7
100
AcDbText
 10
0.0
 20
0.16
 30
0.0
 40
0.01
  1
-1
100
AcDbAttributeDefinition
280
     0
  3
*not used*
  2
BEAMD
 70
     1
280
     0
  0
ATTDEF
  5
54
330
42
100
AcDbEntity
  8
ASHADE
  6
Continuous
 62
     7
100
AcDbText
 10
0.0
 20
0.175
 30
0.0
 40
0.01
  1
-1
100
AcDbAttributeDefinition
280
     0
  3
*not used*
  2
CONED
 70
     1
280
     0
  0
ATTDEF
  5
55
330
42
100
AcDbEntity
  8
ASHADE
  6
Continuous
 62
     7
100
AcDbText
 10
0.0
 20
0.19
 30
0.0
 40
0.01
  1
0
100
AcDbAttributeDefinition
280
     0
  3
Depth Map Size
  2
CONEA
 70
     1
280
     0
  0
ATTDEF
  5
56
330
42
100
AcDbEntity
  8
ASHADE
  6
Continuous
 62
     7
100
AcDbText
 10
0.0
 20
0.2050000000000001
 30
0.0
 40
0.01
  1
1,1,1
100
AcDbAttributeDefinition
280
     0
  3
Light Color (RGB)
  2
COLOR
 70
     1
280
     0
  0
ATTDEF
  5
57
330
42
100
AcDbEntity
  8
ASHADE
  6
Continuous
 62
     7
100
AcDbText
 10
0.0
 20
0.235
 30
0.0
 40
0.01
  1

100
AcDbAttributeDefinition
280
     0
  3
Look-at Z
  2
LAZ
 70
     1
280
     0
  0
ATTDEF
  5
58
330
42
100
AcDbEntity
  8
ASHADE
  6
Continuous
 62
     7
100
AcDbText
 10
0.0
 20
0.25
 30
0.0
 40
0.01
  1

100
AcDbAttributeDefinition
280
     0
  3
Look-at Y
  2
LAY
 70
     1
280
     0
  0
ATTDEF
  5
59
330
42
100
AcDbEntity
  8
ASHADE
  6
Continuous
 62
     7
100
AcDbText
 10
0.0
 20
0.265
 30
0.0
 40
0.01
  1

100
AcDbAttributeDefinition
280
     0
  3
Look-at X
  2
LAX
 70
     1
280
     0
  0
ATTDEF
  5
5A
330
42
100
AcDbEntity
  8
ASHADE
  6
Continuous
 62
     7
100
AcDbText
 10
0.0
 20
0.28
 30
0.0
 40
0.01
  1

100
AcDbAttributeDefinition
280
     0
  3

  2
GNAME
 70
     1
280
     0
  0
LINE
  5
5B
330
42
100
AcDbEntity
  8
ASHADE
  6
Continuous
 62
     7
100
AcDbLine
 10
0.1096591641591904
 20
0.2792398032442862
 30
0.0
 11
0.1279356915190555
 21
0.3257797704516674
 31
0.0
  0
LINE
  5
5C
330
42
100
AcDbEntity
  8
ASHADE
  6
Continuous
 62
     7
100
AcDbLine
 10
0.2041413561583015
 20
0.2198324514393849
 30
0.0
 11
0.2721884748777353
 21
0.2931099352525131
 31
0.0
  0
ENDBLK
  5
5E
330
42
100
AcDbEntity
  8
0
100
AcDbBlockEnd
  0
BLOCK
  5
85
330
5F
100
AcDbEntity
  8
0
100
AcDbBlockBegin
  2
sh_spot
 70
     2
 10
0.0
 20
0.0
 30
0.0
  3
sh_spot
  1

  0
LINE
  5
60
330
5F
100
AcDbEntity
  8
ASHADE
  6
Continuous
 62
     7
100
AcDbLine
 10
0.25
 20
0.26
 30
0.0
 11
-0.25
 21
0.26
 31
0.0
  0
LINE
  5
61
330
5F
100
AcDbEntity
  8
ASHADE
  6
Continuous
 62
     7
100
AcDbLine
 10
-0.25
 20
-0.3399999999999999
 30
0.0
 11
0.25
 21
-0.3399999999999999
 31
0.0
  0
ATTDEF
  5
62
330
5F
100
AcDbEntity
  8
ASHADE
  6
Continuous
 62
     1
100
AcDbText
 10
0.0
 20
-0.1
 30
0.0
 40
0.2
  1

  7
ASHADE
 72
     1
 11
0.0
 21
-0.1
 31
0.0
100
AcDbAttributeDefinition
280
     0
  3
Light Name
  2
SNAME
 70
     0
280
     0
  0
LINE
  5
63
330
5F
100
AcDbEntity
  8
ASHADE
  6
Continuous
 62
     7
100
AcDbLine
 10
-0.25
 20
-0.13
 30
0.0
 11
-0.25
 21
-0.3399999999999999
 31
0.0
  0
LINE
  5
64
330
5F
100
AcDbEntity
  8
ASHADE
  6
Continuous
 62
     7
100
AcDbLine
 10
-0.25
 20
-0.18
 30
0.0
 11
-0.29
 21
-0.18
 31
0.0
  0
LINE
  5
65
330
5F
100
AcDbEntity
  8
ASHADE
  6
Continuous
 62
     7
100
AcDbLine
 10
-0.29
 20
-0.22
 30
0.0
 11
-0.25
 21
-0.22
 31
0.0
  0
LINE
  5
66
330
5F
100
AcDbEntity
  8
ASHADE
  6
Continuous
 62
     7
100
AcDbLine
 10
-0.29
 20
-0.18
 30
0.0
 11
-0.29
 21
-0.22
 31
0.0
  0
LINE
  5
67
330
5F
100
AcDbEntity
  8
ASHADE
  6
Continuous
 62
     7
100
AcDbLine
 10
-0.1045454545454545
 20
0.26
 30
0.0
 11
-0.15
 21
0.46
 31
0.0
  0
LINE
  5
68
330
5F
100
AcDbEntity
  8
ASHADE
  6
Continuous
 62
     7
100
AcDbLine
 10
-0.21
 20
0.26
 30
0.0
 11
-0.301304347826087
 21
0.46
 31
0.0
  0
LINE
  5
69
330
5F
100
AcDbEntity
  8
ASHADE
  6
Continuous
 62
     7
100
AcDbLine
 10
-0.25
 20
0.26
 30
0.0
 11
-0.25
 21
0.13
 31
0.0
  0
LINE
  5
6A
330
5F
100
AcDbEntity
  8
ASHADE
  6
Continuous
 62
     7
100
AcDbLine
 10
-0.25
 20
0.22
 30
0.0
 11
-0.29
 21
0.22
 31
0.0
  0
LINE
  5
6B
330
5F
100
AcDbEntity
  8
ASHADE
  6
Continuous
 62
     7
100
AcDbLine
 10
-0.29
 20
0.1799999999999999
 30
0.0
 11
-0.25
 21
0.1799999999999999
 31
0.0
  0
LINE
  5
6C
330
5F
100
AcDbEntity
  8
ASHADE
  6
Continuous
 62
     7
100
AcDbLine
 10
-0.29
 20
0.22
 30
0.0
 11
-0.29
 21
0.1799999999999999
 31
0.0
  0
ATTDEF
  5
6D
330
5F
100
AcDbEntity
  8
ASHADE
  6
Continuous
 62
     7
100
AcDbText
 10
0.0
 20
-0.24
 30
0.0
 40
0.01
  1
0
100
AcDbAttributeDefinition
280
     0
  3
Depth Map Size
  2
ZSIZE
 70
     1
280
     0
  0
ATTDEF
  5
6E
330
5F
100
AcDbEntity
  8
ASHADE
  6
Continuous
 62
     7
100
AcDbText
 10
0.0
 20
-0.3300000000000001
 30
0.0
 40
0.01
  1
0,0,0
100
AcDbAttributeDefinition
280
     0
  3
Look-from XYZ
  2
LFXYZ
 70
     1
280
     0
  0
ATTDEF
  5
6F
330
5F
100
AcDbEntity
  8
ASHADE
  6
Continuous
 62
     7
100
AcDbText
 10
0.0
 20
-0.315
 30
0.0
 40
0.01
  1
0.0
100
AcDbAttributeDefinition
280
     0
  3
Beam Distribution
  2
BEAMDI
 70
     1
280
     0
  0
ATTDEF
  5
70
330
5F
100
AcDbEntity
  8
ASHADE
  6
Continuous
 62
     7
100
AcDbText
 10
0.0
 20
-0.3
 30
0.0
 40
0.01
  1
0.0
100
AcDbAttributeDefinition
280
     0
  3
Cone Delta
  2
CONEDE
 70
     1
280
     0
  0
ATTDEF
  5
71
330
5F
100
AcDbEntity
  8
ASHADE
  6
Continuous
 62
     7
100
AcDbText
 10
0.0
 20
-0.2850000000000001
 30
0.0
 40
0.01
  1
10.0
100
AcDbAttributeDefinition
280
     0
  3
Cone Angle
  2
CONEAN
 70
     1
280
     0
  0
ATTDEF
  5
72
330
5F
100
AcDbEntity
  8
ASHADE
  6
Continuous
 62
     7
100
AcDbText
 10
0.0
 20
-0.27
 30
0.0
 40
0.01
  1
-1
100
AcDbAttributeDefinition
280
     0
  3
*not used*
  2
BIASMAX
 70
     1
280
     0
  0
ATTDEF
  5
73
330
5F
100
AcDbEntity
  8
ASHADE
  6
Continuous
 62
     7
100
AcDbText
 10
0.0
 20
-0.255
 30
0.0
 40
0.01
  1
-1
100
AcDbAttributeDefinition
280
     0
  3
*not used*
  2
BIASMIN
 70
     1
280
     0
  0
ATTDEF
  5
74
330
5F
100
AcDbEntity
  8
ASHADE
  6
Continuous
 62
     7
100
AcDbText
 10
0.0
 20
-0.225
 30
0.0
 40
0.01
  1
1,1,1
100
AcDbAttributeDefinition
280
     0
  3
Light Color (RGB)
  2
COLOR
 70
     1
280
     0
  0
ATTDEF
  5
75
330
5F
100
AcDbEntity
  8
ASHADE
  6
Continuous
 62
     7
100
AcDbText
 10
0.0
 20
-0.21
 30
0.0
 40
0.01
  1
1
100
AcDbAttributeDefinition
280
     0
  3
Light Intensity
  2
INTENSITY
 70
     1
280
     0
  0
ATTDEF
  5
76
330
5F
100
AcDbEntity
  8
ASHADE
  6
Continuous
 62
     7
100
AcDbText
 10
0.0
 20
-0.15
 30
0.0
 40
0.01
  1

100
AcDbAttributeDefinition
280
     0
  3

  2
GNAME
 70
     1
280
     0
  0
ATTDEF
  5
77
330
5F
100
AcDbEntity
  8
ASHADE
  6
Continuous
 62
     7
100
AcDbText
 10
0.0
 20
-0.195
 30
0.0
 40
0.01
  1

100
AcDbAttributeDefinition
280
     0
  3
Look-at Z
  2
LAZ
 70
     1
280
     0
  0
ATTDEF
  5
78
330
5F
100
AcDbEntity
  8
ASHADE
  6
Continuous
 62
     7
100
AcDbText
 10
0.0
 20
-0.18
 30
0.0
 40
0.01
  1

100
AcDbAttributeDefinition
280
     0
  3
Look-at Y
  2
LAY
 70
     1
280
     0
  0
ATTDEF
  5
79
330
5F
100
AcDbEntity
  8
ASHADE
  6
Continuous
 62
     7
100
AcDbText
 10
0.0
 20
-0.165
 30
0.0
 40
0.01
  1

100
AcDbAttributeDefinition
280
     0
  3
Look-at X
  2
LAX
 70
     1
280
     0
  0
LINE
  5
7A
330
5F
100
AcDbEntity
  8
ASHADE
  6
Continuous
 62
     7
100
AcDbLine
 10
0.25
 20
-0.3399999999999999
 30
0.0
 11
0.25
 21
-0.13
 31
0.0
  0
LINE
  5
7B
330
5F
100
AcDbEntity
  8
ASHADE
  6
Continuous
 62
     7
100
AcDbLine
 10
0.25
 20
-0.18
 30
0.0
 11
0.29
 21
-0.18
 31
0.0
  0
LINE
  5
7C
330
5F
100
AcDbEntity
  8
ASHADE
  6
Continuous
 62
     7
100
AcDbLine
 10
0.29
 20
-0.22
 30
0.0
 11
0.25
 21
-0.22
 31
0.0
  0
LINE
  5
7D
330
5F
100
AcDbEntity
  8
ASHADE
  6
Continuous
 62
     7
100
AcDbLine
 10
0.29
 20
-0.18
 30
0.0
 11
0.29
 21
-0.22
 31
0.0
  0
LINE
  5
7E
330
5F
100
AcDbEntity
  8
ASHADE
  6
Continuous
 62
     7
100
AcDbLine
 10
0.21
 20
0.26
 30
0.0
 11
0.301304347826087
 21
0.46
 31
0.0
  0
LINE
  5
7F
330
5F
100
AcDbEntity
  8
ASHADE
  6
Continuous
 62
     7
100
AcDbLine
 10
0.1045454545454545
 20
0.26
 30
0.0
 11
0.15
 21
0.46
 31
0.0
  0
LINE
  5
80
330
5F
100
AcDbEntity
  8
ASHADE
  6
Continuous
 62
     7
100
AcDbLine
 10
0.0
 20
0.26
 30
0.0
 11
0.0
 21
0.46
 31
0.0
  0
LINE
  5
81
330
5F
100
AcDbEntity
  8
ASHADE
  6
Continuous
 62
     7
100
AcDbLine
 10
0.25
 20
0.13
 30
0.0
 11
0.25
 21
0.26
 31
0.0
  0
LINE
  5
82
330
5F
100
AcDbEntity
  8
ASHADE
  6
Continuous
 62
     7
100
AcDbLine
 10
0.25
 20
0.22
 30
0.0
 11
0.29
 21
0.22
 31
0.0
  0
LINE
  5
83
330
5F
100
AcDbEntity
  8
ASHADE
  6
Continuous
 62
     7
100
AcDbLine
 10
0.29
 20
0.1799999999999999
 30
0.0
 11
0.25
 21
0.1799999999999999
 31
0.0
  0
LINE
  5
84
330
5F
100
AcDbEntity
  8
ASHADE
  6
Continuous
 62
     7
100
AcDbLine
 10
0.29
 20
0.22
 30
0.0
 11
0.29
 21
0.1799999999999999
 31
0.0
  0
ENDBLK
  5
86
330
5F
100
AcDbEntity
  8
0
100
AcDbBlockEnd
  0
BLOCK
  5
92
330
91
100
AcDbEntity
  8
ASHADE
100
AcDbBlockBegin
  2
AVE_RENDER
 70
     0
 10
0.0
 20
0.0
 30
0.0
  3
AVE_RENDER
  1
AVE_RENDER
  0
ENDBLK
  5
93
330
91
100
AcDbEntity
  8
0
100
AcDbBlockEnd
  0
BLOCK
  5
A0
330
9F
100
AcDbEntity
  8
ASHADE
100
AcDbBlockBegin
  2
AVE_GLOBAL
 70
     0
 10
0.0
 20
0.0
 30
0.0
  3
AVE_GLOBAL
  1
AVE_GLOBAL
  0
ENDBLK
  5
A1
330
9F
100
AcDbEntity
  8
0
100
AcDbBlockEnd
  0
ENDSEC
  0
SECTION
  2
ENTITIES
  0
INSERT
  5
94
330
1F
100
AcDbEntity
  8
ASHADE
 62
     1
100
AcDbBlockReference
  2
AVE_RENDER
 10
0.0
 20
0.0
 30
0.0
1001
AVE_RENDER
1002
{
1070
     7
1000
Pref
1070
    30
1070
    20
1070
     1
1070
     0
1000

1070
    10
1070
     1
1070
    10
1040
1.0
1070
     1
1040
0.3
1040
0.7
1040
0.0
1040
10.0
1010
-1.0
1020
-1.0
1030
-1.0
1040
0.3
1070
    49
1070
     0
1070
     0
1010
1.0
1020
1.0
1030
1.0
1040
45.0
1070
     1
1070
     0
1000
WCS
1040
0.0
1070
     0
1040
10.0
1002
}
  0
INSERT
  5
95
330
1F
100
AcDbEntity
  8
ASHADE
 62
     3
100
AcDbBlockReference
  2
AVE_RENDER
 10
0.0
 20
0.0
 30
0.0
1001
AVE_RENDER
1002
{
1070
     0
1000
Full Opt
1070
     0
1070
     1
1070
     1
1070
     1
1070
     0
1070
     0
1070
     0
1070
     1
1070
     1
1040
0.0001
1040
0.0001
1002
}
  0
INSERT
  5
96
330
1F
100
AcDbEntity
  8
ASHADE
 62
     4
100
AcDbBlockReference
  2
AVE_RENDER
 10
0.0
 20
0.0
 30
0.0
1001
AVE_RENDER
1002
{
1070
     0
1000
Quick Opt
1070
     0
1070
     1
1070
     1
1070
     1
1070
     0
1070
     0
1070
     1
1002
}
  0
INSERT
  5
97
330
1F
100
AcDbEntity
  8
ASHADE
 62
     5
100
AcDbBlockReference
  2
AVE_RENDER
 10
0.0
 20
0.0
 30
0.0
1001
AVE_RENDER
1002
{
1070
     1
1000
Scanl Opt
1070
     2
1070
     0
1070
     2
1040
2.0
1040
4.0
1070
     0
1070
     1
1070
     0
1040
0.03
1002
}
  0
INSERT
  5
98
330
1F
100
AcDbEntity
  8
ASHADE
 62
     6
100
AcDbBlockReference
  2
AVE_RENDER
 10
0.0
 20
0.0
 30
0.0
1001
AVE_RENDER
1002
{
1070
     2
1000
Raytr Opt
1070
     2
1070
     0
1070
     2
1040
2.0
1040
4.0
1070
     0
1070
     1
1070
     1
1040
0.03
1070
     3
1040
0.03
1002
}
  0
INSERT
  5
99
330
1F
100
AcDbEntity
  8
ASHADE
 62
     7
100
AcDbBlockReference
  2
AVE_RENDER
 10
0.0
 20
0.0
 30
0.0
1001
AVE_RENDER
1002
{
1070
     0
1000
RFile Opt
1070
     1
1070
   640
1070
   480
1070
 10000
1070
     1
1070
     8
1070
     8
1070
     0
1070
     0
1070
     0
1070
     0
1070
     0
1070
     0
1070
     0
1002
}
  0
INSERT
  5
9A
330
1F
100
AcDbEntity
  8
ASHADE
 62
     8
100
AcDbBlockReference
  2
AVE_RENDER
 10
0.0
 20
0.0
 30
0.0
1001
AVE_RENDER
1002
{
1070
     0
1000
Fog Opt
1070
     0
1070
     0
1040
0.0
1040
1.0
1040
0.0
1040
1.0
1010
0.5
1020
0.5
1030
0.5
1002
}
  0
INSERT
  5
9B
330
1F
100
AcDbEntity
  8
ASHADE
 62
     9
100
AcDbBlockReference
  2
AVE_RENDER
 10
0.0
 20
0.0
 30
0.0
1001
AVE_RENDER
1002
{
1070
     0
1000
BG Opt
1070
     0
1070
     1
1010
0.0
1020
0.0
1030
0.0
1010
1.0
1020
0.0
1030
0.0
1010
0.0
1020
1.0
1030
0.0
1010
0.0
1020
0.0
1030
1.0
1040
0.5
1040
0.33
1040
0.0
1000

1070
     1
1000

1070
     1
1070
     1
1040
1.0
1040
1.0
1040
0.0
1040
0.0
1070
     0
1002
}
  0
INSERT
  5
A2
330
1F
100
AcDbEntity
  8
ASHADE
 62
     1
100
AcDbBlockReference
  2
AVE_GLOBAL
 10
0.0
 20
0.0
 30
0.0
1001
AVE_MATERIAL
1002
{
1000
*GLOBAL*
1000
2
1000
Global finish.
1002
{
1002
}
1002
{
1070
    63
1002
{
1002
{
1010
-1.0
1020
-1.0
1030
-1.0
1002
}
1040
0.1000000014901161
1000

1040
0.0
1002
{
1002
}
1040
0.0
1002
{
1002
}
1040
0.0
1002
}
1002
{
1002
{
1010
-1.0
1020
-1.0
1030
-1.0
1002
}
1040
0.6999999880790711
1000

1040
0.0
1002
{
1002
}
1040
0.0
1002
{
1002
}
1040
0.0
1002
}
1002
{
1002
{
1010
-1.0
1020
-1.0
1030
-1.0
1002
}
1040
0.2000000029802322
1000

1040
0.0
1002
{
1002
}
1040
0.0
1002
{
1002
}
1040
0.0
1002
}
1002
{
1070
     0
1002
{
1070
     1
1002
{
1040
1.0
1040
1.0
1000

1040
0.0
1002
{
1002
}
1040
0.0
1002
{
1002
}
1040
0.0
1002
}
1002
}
1040
1.0
1040
0.0
1040
0.0
1002
}
1002
{
1040
1.0
1040
1.0
1000

1040
0.0
1002
{
1002
}
1040
0.0
1002
{
1002
}
1040
0.0
1002
}
1002
{
1040
0.5
1040
1.0
1000

1040
0.0
1002
{
1002
}
1040
0.0
1002
{
1002
}
1040
0.0
1002
}
1002
{
1070
     0
1040
0.0
1002
{
1002
}
1040
1.0
1002
{
1002
}
1040
0.0
1002
}
1002
{
1040
0.0
1002
{
1002
{
1010
0.0
1020
0.0
1030
0.0
1002
}
1040
1.0
1000

1040
0.0
1002
{
1002
}
1040
0.0
1002
{
1002
}
1040
0.0
1002
}
1002
}
1002
{
1002
{
1070
     1
1002
{
1040
0.0
1040
1.0
1000

1040
0.0
1002
{
1002
}
1040
0.0
1002
{
1002
}
1040
0.0
1002
}
1002
}
1040
0.0
1002
{
1002
}
1010
1.0
1020
0.0
1030
0.0
1010
0.0
1020
1.0
1030
0.0
1010
0.0
1020
0.0
1030
1.0
1070
     0
1002
}
1002
{
1002
{
1040
1.0
1040
1.0
1002
{
1070
     1
1002
{
1040
1.0
1040
1.0
1000

1040
0.0
1002
{
1002
}
1040
0.0
1002
{
1002
}
1040
0.0
1002
}
1002
}
1002
}
1070
     0
1040
0.0
1002
{
1002
}
1002
}
1002
{
1002
}
1002
}
1002
{
1071
        3
1070
     3
1070
     0
1002
{
1070
     2
1070
     0
1070
     0
1040
0.0
1002
}
1070
     0
1070
     2
1002
{
1002
}
1002
}
1002
{
1040
8030.0
1040
190.3000030517578
1040
0.3050000071525574
1040
228.0
1040
545.0
1040
14.0
1040
17.39999961853027
1040
0.4560000002384186
1002
}
1002
}
  0
MESH
  5
F9
102
{ACAD_REACTORS
330
FD
102
}
330
1F
100
AcDbEntity
  8
0
 62
     9
420
 12566463
160
             20672
310
C05000003E0200000C00000013000000020000003C0000000600000002000000000000400300344000000060119908BF0000000000001C400000004089AA334000000040FE1D0DC000000000003AA0400C000000130000000A0000003C0000000600000002000000000000400300344000000060119908BF0000000000001C
310
400000004003003440000000E02D2D39BF00000000003AA0400C00000013000000120000003C00000006000000020000000000004003003440000000E02D2D39BF00000000003AA0400000004089AA334000000040FE1D0DC000000000003AA0400C000000130000001A0000003C0000000600000002000000000000400300
310
3440000000E02D2D39BF00000000003AA0400000004089AA3340000000401C1D0D400000002000001C400C00000013000000220000003C00000006000000020000000000004003003440000000E02D2D39BF00000000003AA040000000400300344000000060119908BF0000000000001C400C000000130000002A0000003C
310
0000000600000002000000000000400300344000000060119908BF0000000000001C400000004089AA3340000000401C1D0D400000002000001C400C00000013000000320000003C00000006000000020000000000004089AA3340000000806B1C0D4000000000003AA0400000004089AA3340000000401C1D0D4000000020
310
00001C400C000000130000003A0000003C00000006000000020000000000004003003440000000E02D2D39BF00000000003AA0400000004089AA3340000000806B1C0D4000000000003AA0400C00000013000000420000003C00000006000000020000000000006087983240000000A02F721D4000000000003AA040000000
310
4089AA3340000000401C1D0D400000002000001C400C000000130000004A0000003C00000006000000020000000000004089AA3340000000806B1C0D4000000000003AA0400000006087983240000000A02F721D4000000000003AA0400C00000013000000520000003C000000060000000200000000000060879832400000
310
00A02F721D4000000000003AA04000000060879832400000002088721D400000006000001C400C000000130000005A0000003C00000006000000020000000000004089AA3340000000401C1D0D400000002000001C4000000060879832400000002088721D400000006000001C400C00000013000000620000003C00000006
310
000000020000000000006087983240000000A02F721D4000000000003AA040000000006EBD30400000006067E325400000008000001C400C000000130000006A0000003C000000060000000200000000000060879832400000002088721D400000006000001C40000000006EBD30400000006067E325400000008000001C40
310
0C00000013000000720000003C0000000600000002000000000000006EBD3040000000203BE3254000000000003AA040000000006EBD30400000006067E325400000008000001C400C000000130000007A0000003C00000006000000020000000000006087983240000000A02F721D4000000000003AA040000000006EBD30
310
40000000203BE3254000000000003AA0400C00000013000000820000003C0000000600000002000000000000006EBD3040000000203BE3254000000000003AA04000000080CC482C40000000E0BF482C40000000A000001C400C000000130000008A0000003C0000000600000002000000000000006EBD30400000006067E3
310
25400000008000001C4000000080CC482C40000000E0BF482C40000000A000001C400C00000013000000920000003C000000060000000200000000000080CC482C40000000A093482C4000000000003AA04000000080CC482C40000000E0BF482C40000000A000001C400C000000130000009A0000003C0000000600000002
310
000000000000006EBD3040000000203BE3254000000000003AA04000000080CC482C40000000A093482C4000000000003AA0400C00000013000000A20000003C000000060000000200000000000080CC482C40000000A093482C4000000000003AA0400000000074E32540000000A067BD3040000000C000001C400C000000
310
13000000AA0000003C000000060000000200000000000080CC482C40000000E0BF482C40000000A000001C400000000074E32540000000A067BD3040000000C000001C400C00000013000000B20000003C00000006000000020000000000000074E32540000000A051BD304000000000003AA0400000000074E32540000000
310
A067BD3040000000C000001C400C00000013000000BA0000003C000000060000000200000000000080CC482C40000000A093482C4000000000003AA0400000000074E32540000000A051BD304000000000003AA0400C00000013000000C20000003C00000006000000020000000000000074E32540000000A051BD30400000
310
0000003AA04000000080A1721D400000000081983240000000C000001C400C00000013000000CA0000003C00000006000000020000000000000074E32540000000A067BD3040000000C000001C4000000080A1721D400000000081983240000000C000001C400C00000013000000D20000003C000000060000000200000000
310
000080A1721D40000000006B98324000000000003AA04000000080A1721D400000000081983240000000C000001C400C00000013000000DA0000003C00000006000000020000000000000074E32540000000A051BD304000000000003AA04000000080A1721D40000000006B98324000000000003AA0400C00000013000000
310
E20000003C000000060000000200000000000080A1721D40000000006B98324000000000003AA040000000204F1D0D40000000E082AA3340000000E000001C400C00000013000000EA0000003C000000060000000200000000000080A1721D400000000081983240000000C000001C40000000204F1D0D40000000E082AA33
310
40000000E000001C400C00000013000000F20000003C0000000600000002000000000000204F1D0D40000000E06CAA334000000000003AA040000000204F1D0D40000000E082AA3340000000E000001C400C00000013000000FA0000003C000000060000000200000000000080A1721D40000000006B98324000000000003A
310
A040000000204F1D0D40000000E06CAA334000000000003AA0400C00000013000000020100003C0000000600000002000000000000204F1D0D40000000E06CAA334000000000003AA040000000C0E2360A3F000000E0FCFF3340000000E000001C400C000000130000000A0100003C0000000600000002000000000000204F
310
1D0D40000000E082AA3340000000E000001C40000000C0E2360A3F000000E0FCFF3340000000E000001C400C00000013000000120100003C00000006000000020000000000006000370A3F000000E0E6FF334000000000003AA040000000C0E2360A3F000000E0FCFF3340000000E000001C400C000000130000001A010000
310
3C0000000600000002000000000000204F1D0D40000000E06CAA334000000000003AA0400000006000370A3F000000E0E6FF334000000000003AA0400C00000013000000220100003C0000000600000002000000000000A01A1D0DC0000000E06CAA334000000000003AA040000000C0E2360A3F000000E0FCFF3340000000
310
E000001C400C000000130000002A0100003C00000006000000020000000000006000370A3F000000E0E6FF334000000000003AA040000000A01A1D0DC0000000E06CAA334000000000003AA0400C00000013000000320100003C0000000600000002000000000000A01A1D0DC0000000E06CAA334000000000003AA0400000
310
00A01A1D0DC0000000E082AA3340000000E000001C400C000000130000003A0100003C0000000600000002000000000000C0E2360A3F000000E0FCFF3340000000E000001C40000000A01A1D0DC0000000E082AA3340000000E000001C400C00000013000000420100003C0000000600000002000000000000A01A1D0DC000
310
0000E06CAA334000000000003AA0400000004087721DC00000000081983240000000C000001C400C000000130000004A0100003C0000000600000002000000000000A01A1D0DC0000000E082AA3340000000E000001C400000004087721DC00000000081983240000000C000001C400C00000013000000520100003C000000
310
06000000020000000000004087721DC0000000006B98324000000000003AA0400000004087721DC00000000081983240000000C000001C400C000000130000005A0100003C0000000600000002000000000000A01A1D0DC0000000E06CAA334000000000003AA0400000004087721DC0000000006B98324000000000003AA0
310
400C00000013000000620100003C00000006000000020000000000004087721DC0000000006B98324000000000003AA0400000000067E325C0000000A067BD3040000000C000001C400C000000130000006A0100003C00000006000000020000000000004087721DC00000000081983240000000C000001C400000000067E3
310
25C0000000A067BD3040000000C000001C400C00000013000000720100003C00000006000000020000000000000067E325C0000000A051BD304000000000003AA0400000000067E325C0000000A067BD3040000000C000001C400C000000130000007A0100003C00000006000000020000000000004087721DC0000000006B
310
98324000000000003AA0400000000067E325C0000000A051BD304000000000003AA0400C00000013000000820100003C00000006000000020000000000000067E325C0000000A051BD304000000000003AA04000000080BF482CC0000000E0BF482C40000000A000001C400C000000130000008A0100003C00000006000000
310
020000000000000067E325C0000000A067BD3040000000C000001C4000000080BF482CC0000000E0BF482C40000000A000001C400C00000013000000920100003C000000060000000200000000000080BF482CC0000000A093482C4000000000003AA04000000080BF482CC0000000E0BF482C40000000A000001C400C0000
310
00130000009A0100003C00000006000000020000000000000067E325C0000000A051BD304000000000003AA04000000080BF482CC0000000A093482C4000000000003AA0400C00000013000000A20100003C000000060000000200000000000080BF482CC0000000A093482C4000000000003AA0400000008067BD30C00000
310
006067E325400000008000001C400C00000013000000AA0100003C000000060000000200000000000080BF482CC0000000E0BF482C40000000A000001C400000008067BD30C00000006067E325400000008000001C400C00000013000000B20100003C00000006000000020000000000008067BD30C0000000203BE3254000
310
000000003AA0400000008067BD30C00000006067E325400000008000001C400C00000013000000BA0100003C000000060000000200000000000080BF482CC0000000A093482C4000000000003AA0400000008067BD30C0000000203BE3254000000000003AA0400C00000013000000C20100003C0000000600000002000000
310
0000008067BD30C0000000203BE3254000000000003AA040000000E0809832C00000002088721D400000006000001C400C00000013000000CA0100003C00000006000000020000000000008067BD30C00000006067E325400000008000001C40000000E0809832C00000002088721D400000006000001C400C000000130000
310
00D20100003C0000000600000002000000000000E0809832C0000000A02F721D4000000000003AA040000000E0809832C00000002088721D400000006000001C400C00000013000000DA0100003C00000006000000020000000000008067BD30C0000000203BE3254000000000003AA040000000E0809832C0000000A02F72
310
1D4000000000003AA0400C00000013000000E20100003C0000000600000002000000000000C082AA33C0000000806B1C0D4000000000003AA040000000E0809832C00000002088721D400000006000001C400C00000013000000EA0100003C0000000600000002000000000000E0809832C0000000A02F721D400000000000
310
3AA040000000C082AA33C0000000806B1C0D4000000000003AA0400C00000013000000F20100003C0000000600000002000000000000C082AA33C0000000806B1C0D4000000000003AA040000000C082AA33C0000000401C1D0D400000002000001C400C00000013000000FA0100003C0000000600000002000000000000E0
310
809832C00000002088721D400000006000001C40000000C082AA33C0000000401C1D0D400000002000001C400C00000013000000020200003C0000000600000002000000000000C082AA33C0000000806B1C0D4000000000003AA040000000C0FCFF33C000000060119908BF0000000000001C400C000000130000000A0200
310
003C0000000600000002000000000000C082AA33C0000000401C1D0D400000002000001C40000000C0FCFF33C000000060119908BF0000000000001C400C00000013000000120200003C0000000600000002000000000000C0FCFF33C0000000802A2D39BF00000000003AA040000000C0FCFF33C000000060119908BF0000
310
000000001C400C000000130000001A0200003C0000000600000002000000000000C082AA33C0000000806B1C0D4000000000003AA040000000C0FCFF33C0000000802A2D39BF00000000003AA0400C00000013000000220200003C0000000600000002000000000000C082AA33C000000040FE1D0DC000000000003AA04000
310
0000C0FCFF33C000000060119908BF0000000000001C400C000000130000002A0200003C0000000600000002000000000000C0FCFF33C0000000802A2D39BF00000000003AA040000000C082AA33C000000040FE1D0DC000000000003AA0400C00000013000000320200003C0000000600000002000000000000C082AA33C0
310
00000040FE1D0DC000000000003AA040000000C082AA33C0000000804D1D0DC0000000E0FFFF1B400C000000130000003A0200003C0000000600000002000000000000C0FCFF33C000000060119908BF0000000000001C40000000C082AA33C0000000804D1D0DC0000000E0FFFF1B400C00000013000000420200003C0000
310
000600000002000000000000C082AA33C000000040FE1D0DC000000000003AA040000000E0809832C0000000A0A0721DC0000000A0FFFF1B400C000000130000004A0200003C0000000600000002000000000000C082AA33C0000000804D1D0DC0000000E0FFFF1B40000000E0809832C0000000A0A0721DC0000000A0FFFF
310
1B400C00000013000000520200003C0000000600000002000000000000E0809832C000000020F9721DC000000000003AA040000000E0809832C0000000A0A0721DC0000000A0FFFF1B400C000000130000005A0200003C0000000600000002000000000000C082AA33C000000040FE1D0DC000000000003AA040000000E080
310
9832C000000020F9721DC000000000003AA0400C00000013000000620200003C0000000600000002000000000000E0809832C000000020F9721DC000000000003AA0400000008067BD30C0000000A073E325C000000080FFFF1B400C000000130000006A0200003C0000000600000002000000000000E0809832C0000000A0
310
A0721DC0000000A0FFFF1B400000008067BD30C0000000A073E325C000000080FFFF1B400C00000013000000720200003C00000006000000020000000000008067BD30C0000000E09FE325C000000000003AA0400000008067BD30C0000000A073E325C000000080FFFF1B400C000000130000007A0200003C000000060000
310
0002000000000000E0809832C000000020F9721DC000000000003AA0400000008067BD30C0000000E09FE325C000000000003AA0400C00000013000000820200003C00000006000000020000000000008067BD30C0000000E09FE325C000000000003AA04000000080BF482CC000000020CC482CC000000060FFFF1B400C00
310
0000130000008A0200003C00000006000000020000000000008067BD30C0000000A073E325C000000080FFFF1B4000000080BF482CC000000020CC482CC000000060FFFF1B400C00000013000000920200003C000000060000000200000000000080BF482CC000000060F8482CC000000000003AA04000000080BF482CC000
310
000020CC482CC000000060FFFF1B400C000000130000009A0200003C00000006000000020000000000008067BD30C0000000E09FE325C000000000003AA04000000080BF482CC000000060F8482CC000000000003AA0400C00000013000000A20200003C000000060000000200000000000080BF482CC000000060F8482CC0
310
00000000003AA0400000000067E325C0000000E06DBD30C000000040FFFF1B400C00000013000000AA0200003C000000060000000200000000000080BF482CC000000020CC482CC000000060FFFF1B400000000067E325C0000000E06DBD30C000000040FFFF1B400C00000013000000B20200003C00000006000000020000
310
000000000067E325C0000000E083BD30C000000000003AA0400000000067E325C0000000E06DBD30C000000040FFFF1B400C00000013000000BA0200003C000000060000000200000000000080BF482CC000000060F8482CC000000000003AA0400000000067E325C0000000E083BD30C000000000003AA0400C0000001300
310
0000C20200003C00000006000000020000000000000067E325C0000000E083BD30C000000000003AA0400000004087721DC000000040879832C000000040FFFF1B400C00000013000000CA0200003C00000006000000020000000000000067E325C0000000E06DBD30C000000040FFFF1B400000004087721DC00000004087
310
9832C000000040FFFF1B400C00000013000000D20200003C00000006000000020000000000004087721DC0000000409D9832C000000000003AA0400000004087721DC000000040879832C000000040FFFF1B400C00000013000000DA0200003C00000006000000020000000000000067E325C0000000E083BD30C000000000
310
003AA0400000004087721DC0000000409D9832C000000000003AA0400C00000013000000E20200003C00000006000000020000000000004087721DC0000000409D9832C000000000003AA040000000A01A1D0DC00000002089AA33C000000020FFFF1B400C00000013000000EA0200003C0000000600000002000000000000
310
4087721DC000000040879832C000000040FFFF1B40000000A01A1D0DC00000002089AA33C000000020FFFF1B400C00000013000000F20200003C0000000600000002000000000000A01A1D0DC0000000209FAA33C000000000003AA040000000A01A1D0DC00000002089AA33C000000020FFFF1B400C00000013000000FA02
310
00003C00000006000000020000000000004087721DC0000000409D9832C000000000003AA040000000A01A1D0DC0000000209FAA33C000000000003AA0400C00000013000000020300003C0000000600000002000000000000A01A1D0DC0000000209FAA33C000000000003AA040000000C0E2360A3F00000020030034C000
310
000020FFFF1B400C000000130000000A0300003C0000000600000002000000000000A01A1D0DC00000002089AA33C000000020FFFF1B40000000C0E2360A3F00000020030034C000000020FFFF1B400C00000013000000120300003C0000000600000002000000000000A0C9360A3F00000020190034C000000000003AA040
310
000000C0E2360A3F00000020030034C000000020FFFF1B400C000000130000001A0300003C0000000600000002000000000000A01A1D0DC0000000209FAA33C000000000003AA040000000A0C9360A3F00000020190034C000000000003AA0400C00000013000000220300003C0000000600000002000000000000A0C9360A
310
3F00000020190034C000000000003AA040000000204F1D0D400000002089AA33C000000020FFFF1B400C000000130000002A0300003C0000000600000002000000000000C0E2360A3F00000020030034C000000020FFFF1B40000000204F1D0D400000002089AA33C000000020FFFF1B400C00000013000000320300003C00
310
00000600000002000000000000204F1D0D40000000209FAA33C000000000003AA040000000204F1D0D400000002089AA33C000000020FFFF1B400C000000130000003A0300003C0000000600000002000000000000A0C9360A3F00000020190034C000000000003AA040000000204F1D0D40000000209FAA33C00000000000
310
3AA0400C00000013000000420300003C0000000600000002000000000000204F1D0D40000000209FAA33C000000000003AA04000000080A1721D4000000040879832C000000040FFFF1B400C000000130000004A0300003C0000000600000002000000000000204F1D0D400000002089AA33C000000020FFFF1B4000000080
310
A1721D4000000040879832C000000040FFFF1B400C00000013000000520300003C000000060000000200000000000080A1721D40000000409D9832C000000000003AA04000000080A1721D4000000040879832C000000040FFFF1B400C000000130000005A0300003C0000000600000002000000000000204F1D0D40000000
310
209FAA33C000000000003AA04000000080A1721D40000000409D9832C000000000003AA0400C00000013000000620300003C000000060000000200000000000080A1721D40000000409D9832C000000000003AA0400000000074E32540000000E06DBD30C000000040FFFF1B400C000000130000006A0300003C0000000600
310
00000200000000000080A1721D4000000040879832C000000040FFFF1B400000000074E32540000000E06DBD30C000000040FFFF1B400C00000013000000720300003C00000006000000020000000000000074E32540000000E083BD30C000000000003AA0400000000074E32540000000E06DBD30C000000040FFFF1B400C
310
000000130000007A0300003C000000060000000200000000000080A1721D40000000409D9832C000000000003AA0400000000074E32540000000E083BD30C000000000003AA0400C00000013000000820300003C00000006000000020000000000000074E32540000000E083BD30C000000000003AA04000000080CC482C40
310
00000020CC482CC000000060FFFF1B400C000000130000008A0300003C00000006000000020000000000000074E32540000000E06DBD30C000000040FFFF1B4000000080CC482C4000000020CC482CC000000060FFFF1B400C00000013000000920300003C000000060000000200000000000080CC482C4000000060F8482C
310
C000000000003AA04000000080CC482C4000000020CC482CC000000060FFFF1B400C000000130000009A0300003C00000006000000020000000000000074E32540000000E083BD30C000000000003AA04000000080CC482C4000000060F8482CC000000000003AA0400C00000013000000A20300003C000000060000000200
310
000000000080CC482C4000000060F8482CC000000000003AA040000000006EBD3040000000A073E325C000000080FFFF1B400C00000013000000AA0300003C000000060000000200000000000080CC482C4000000020CC482CC000000060FFFF1B40000000006EBD3040000000A073E325C000000080FFFF1B400C00000013
310
000000B20300003C0000000600000002000000000000006EBD3040000000E09FE325C000000000003AA040000000006EBD3040000000A073E325C000000080FFFF1B400C00000013000000BA0300003C000000060000000200000000000080CC482C4000000060F8482CC000000000003AA040000000006EBD3040000000E0
310
9FE325C000000000003AA0400C00000013000000C20300003C0000000600000002000000000000006EBD3040000000E09FE325C000000000003AA0400000006087983240000000A0A0721DC0000000A0FFFF1B400C00000013000000CA0300003C0000000600000002000000000000006EBD3040000000A073E325C0000000
310
80FFFF1B400000006087983240000000A0A0721DC0000000A0FFFF1B400C00000013000000D20300003C0000000600000002000000000000608798324000000020F9721DC000000000003AA0400000006087983240000000A0A0721DC0000000A0FFFF1B400C00000013000000DA0300003C00000006000000020000000000
310
00006EBD3040000000E09FE325C000000000003AA040000000608798324000000020F9721DC000000000003AA0400C00000013000000E20300003C0000000600000002000000000000608798324000000020F9721DC000000000003AA0400000004089AA3340000000804D1D0DC0000000E0FFFF1B400C00000013000000EA
310
0300003C00000006000000020000000000006087983240000000A0A0721DC0000000A0FFFF1B400000004089AA3340000000804D1D0DC0000000E0FFFF1B400C00000013000000F20300003C00000006000000020000000000004089AA334000000040FE1D0DC000000000003AA0400000004089AA3340000000804D1D0DC0
310
000000E0FFFF1B400C00000013000000FA0300003C0000000600000002000000000000608798324000000020F9721DC000000000003AA0400000004089AA334000000040FE1D0DC000000000003AA0400C00000013000000020400003C0000000600000002000000000000400300344000000060119908BF0000000000001C
310
400000004089AA3340000000804D1D0DC0000000E0FFFF1B400C000000130000000A0400003C0000000600000002000000000000A0C9360A3F00000020190034C000000000003AA04000000080A1721D40000000409D9832C000000000003AA0400C00000013000000120400003C0000000600000002000000000000A0C936
310
0A3F00000020190034C000000000003AA040000000204F1D0D40000000209FAA33C000000000003AA0400C000000130000001A0400003C0000000600000002000000000000204F1D0D40000000209FAA33C000000000003AA04000000080A1721D40000000409D9832C000000000003AA0400C00000013000000220400003C
310
0000000600000002000000000000006EBD3040000000E09FE325C000000000003AA0400000004089AA334000000040FE1D0DC000000000003AA0400C000000130000002A0400003C0000000600000002000000000000006EBD3040000000E09FE325C000000000003AA040000000608798324000000020F9721DC000000000
310
003AA0400C00000013000000320400003C0000000600000002000000000000608798324000000020F9721DC000000000003AA0400000004089AA334000000040FE1D0DC000000000003AA0400C000000130000003A0400003C000000060000000200000000000080CC482C4000000060F8482CC000000000003AA040000000
310
4089AA334000000040FE1D0DC000000000003AA0400C00000013000000420400003C0000000600000002000000000000006EBD3040000000E09FE325C000000000003AA04000000080CC482C4000000060F8482CC000000000003AA0400C000000130000004A0400003C00000006000000020000000000000074E325400000
310
00E083BD30C000000000003AA0400000004089AA334000000040FE1D0DC000000000003AA0400C00000013000000520400003C000000060000000200000000000080CC482C4000000060F8482CC000000000003AA0400000000074E32540000000E083BD30C000000000003AA0400C000000130000005A0400003C00000006
310
000000020000000000000074E32540000000E083BD30C000000000003AA0400000004003003440000000E02D2D39BF00000000003AA0400C00000013000000620400003C00000006000000020000000000004089AA334000000040FE1D0DC000000000003AA0400000004003003440000000E02D2D39BF00000000003AA040
310
0C000000130000006A0400003C000000060000000200000000000080A1721D40000000409D9832C000000000003AA0400000004003003440000000E02D2D39BF00000000003AA0400C00000013000000720400003C00000006000000020000000000000074E32540000000E083BD30C000000000003AA04000000080A1721D
310
40000000409D9832C000000000003AA0400C000000130000007A0400003C000000060000000200000000000080A1721D40000000409D9832C000000000003AA0400000004089AA3340000000806B1C0D4000000000003AA0400C00000013000000820400003C00000006000000020000000000004003003440000000E02D2D
310
39BF00000000003AA0400000004089AA3340000000806B1C0D4000000000003AA0400C000000130000008A0400003C000000060000000200000000000080A1721D40000000409D9832C000000000003AA0400000006087983240000000A02F721D4000000000003AA0400C00000013000000920400003C0000000600000002
310
0000000000004089AA3340000000806B1C0D4000000000003AA0400000006087983240000000A02F721D4000000000003AA0400C000000130000009A0400003C000000060000000200000000000080A1721D40000000409D9832C000000000003AA040000000006EBD3040000000203BE3254000000000003AA0400C000000
310
13000000A20400003C00000006000000020000000000006087983240000000A02F721D4000000000003AA040000000006EBD3040000000203BE3254000000000003AA0400C00000013000000AA0400003C000000060000000200000000000080A1721D40000000409D9832C000000000003AA04000000080CC482C40000000
310
A093482C4000000000003AA0400C00000013000000B20400003C0000000600000002000000000000006EBD3040000000203BE3254000000000003AA04000000080CC482C40000000A093482C4000000000003AA0400C00000013000000BA0400003C000000060000000200000000000080A1721D40000000409D9832C00000
310
0000003AA0400000000074E32540000000A051BD304000000000003AA0400C00000013000000C20400003C000000060000000200000000000080CC482C40000000A093482C4000000000003AA0400000000074E32540000000A051BD304000000000003AA0400C00000013000000CA0400003C000000060000000200000000
310
000080A1721D40000000409D9832C000000000003AA04000000080A1721D40000000006B98324000000000003AA0400C00000013000000D20400003C00000006000000020000000000000074E32540000000A051BD304000000000003AA04000000080A1721D40000000006B98324000000000003AA0400C00000013000000
310
DA0400003C000000060000000200000000000080A1721D40000000409D9832C000000000003AA040000000204F1D0D40000000E06CAA334000000000003AA0400C00000013000000E20400003C000000060000000200000000000080A1721D40000000006B98324000000000003AA040000000204F1D0D40000000E06CAA33
310
4000000000003AA0400C00000013000000EA0400003C000000060000000200000000000080A1721D40000000409D9832C000000000003AA0400000006000370A3F000000E0E6FF334000000000003AA0400C00000013000000F20400003C0000000600000002000000000000204F1D0D40000000E06CAA334000000000003A
310
A0400000006000370A3F000000E0E6FF334000000000003AA0400C00000013000000FA0400003C000000060000000200000000000080A1721D40000000409D9832C000000000003AA040000000A01A1D0DC0000000E06CAA334000000000003AA0400C00000013000000020500003C00000006000000020000000000006000
310
370A3F000000E0E6FF334000000000003AA040000000A01A1D0DC0000000E06CAA334000000000003AA0400C000000130000000A0500003C000000060000000200000000000080A1721D40000000409D9832C000000000003AA0400000004087721DC0000000006B98324000000000003AA0400C0000001300000012050000
310
3C0000000600000002000000000000A01A1D0DC0000000E06CAA334000000000003AA0400000004087721DC0000000006B98324000000000003AA0400C000000130000001A0500003C000000060000000200000000000080A1721D40000000409D9832C000000000003AA0400000000067E325C0000000A051BD3040000000
310
00003AA0400C00000013000000220500003C00000006000000020000000000004087721DC0000000006B98324000000000003AA0400000000067E325C0000000A051BD304000000000003AA0400C000000130000002A0500003C000000060000000200000000000080A1721D40000000409D9832C000000000003AA0400000
310
0080BF482CC0000000A093482C4000000000003AA0400C00000013000000320500003C00000006000000020000000000000067E325C0000000A051BD304000000000003AA04000000080BF482CC0000000A093482C4000000000003AA0400C000000130000003A0500003C000000060000000200000000000080A1721D4000
310
0000409D9832C000000000003AA0400000008067BD30C0000000203BE3254000000000003AA0400C00000013000000420500003C000000060000000200000000000080BF482CC0000000A093482C4000000000003AA0400000008067BD30C0000000203BE3254000000000003AA0400C000000130000004A0500003C000000
310
060000000200000000000080A1721D40000000409D9832C000000000003AA040000000E0809832C0000000A02F721D4000000000003AA0400C00000013000000520500003C00000006000000020000000000008067BD30C0000000203BE3254000000000003AA040000000E0809832C0000000A02F721D4000000000003AA0
310
400C000000130000005A0500003C000000060000000200000000000080A1721D40000000409D9832C000000000003AA040000000C082AA33C0000000806B1C0D4000000000003AA0400C00000013000000620500003C0000000600000002000000000000E0809832C0000000A02F721D4000000000003AA040000000C082AA
310
33C0000000806B1C0D4000000000003AA0400C000000130000006A0500003C000000060000000200000000000080A1721D40000000409D9832C000000000003AA040000000C0FCFF33C0000000802A2D39BF00000000003AA0400C00000013000000720500003C0000000600000002000000000000C082AA33C0000000806B
310
1C0D4000000000003AA040000000C0FCFF33C0000000802A2D39BF00000000003AA0400C000000130000007A0500003C000000060000000200000000000080A1721D40000000409D9832C000000000003AA040000000C082AA33C000000040FE1D0DC000000000003AA0400C00000013000000820500003C00000006000000
310
02000000000000C0FCFF33C0000000802A2D39BF00000000003AA040000000C082AA33C000000040FE1D0DC000000000003AA0400C000000130000008A0500003C000000060000000200000000000080A1721D40000000409D9832C000000000003AA040000000E0809832C000000020F9721DC000000000003AA0400C0000
310
0013000000920500003C0000000600000002000000000000C082AA33C000000040FE1D0DC000000000003AA040000000E0809832C000000020F9721DC000000000003AA0400C000000130000009A0500003C000000060000000200000000000080A1721D40000000409D9832C000000000003AA0400000008067BD30C00000
310
00E09FE325C000000000003AA0400C00000013000000A20500003C0000000600000002000000000000E0809832C000000020F9721DC000000000003AA0400000008067BD30C0000000E09FE325C000000000003AA0400C00000013000000AA0500003C000000060000000200000000000080A1721D40000000409D9832C000
310
000000003AA04000000080BF482CC000000060F8482CC000000000003AA0400C00000013000000B20500003C00000006000000020000000000008067BD30C0000000E09FE325C000000000003AA04000000080BF482CC000000060F8482CC000000000003AA0400C00000013000000BA0500003C0000000600000002000000
310
00000080A1721D40000000409D9832C000000000003AA0400000000067E325C0000000E083BD30C000000000003AA0400C00000013000000C20500003C000000060000000200000000000080BF482CC000000060F8482CC000000000003AA0400000000067E325C0000000E083BD30C000000000003AA0400C000000130000
310
00CA0500003C000000060000000200000000000080A1721D40000000409D9832C000000000003AA0400000004087721DC0000000409D9832C000000000003AA0400C00000013000000D20500003C00000006000000020000000000000067E325C0000000E083BD30C000000000003AA0400000004087721DC0000000409D98
310
32C000000000003AA0400C00000013000000DA0500003C000000060000000200000000000080A1721D40000000409D9832C000000000003AA040000000A01A1D0DC0000000209FAA33C000000000003AA0400C00000013000000E20500003C00000006000000020000000000004087721DC0000000409D9832C00000000000
310
3AA040000000A01A1D0DC0000000209FAA33C000000000003AA0400C00000013000000EA0500003C0000000600000002000000000000A0C9360A3F00000020190034C000000000003AA040000000A01A1D0DC0000000209FAA33C000000000003AA0400C00000013000000F20500003C0000000600000002000000000000A0
310
FF9F64C000000080010044C0000000E06355DBBE000000A0FF9F64C0000000C0FFBF7C40000000A013001C400C00000013000000FA0500003C0000000600000002000000000000A0FF9F64C000000080010044C0000000E06355DBBE000000A0FF9F64C000000080010044C000000040FEFF1B400C00000013000000020600
310
003C0000000600000002000000000000A0FF9F64C000000080010044C000000040FEFF1B40000000A0FF9F64C0000000C0FFBF7C40000000A013001C400C000000130000000A0600003C0000000600000002000000000000A0FF9F64C0000000C0FFBF7C40000000A013001C40000000A0FF9F64C0000000C0FFBF7C400000
310
00C05FA5133F0C00000013000000120600003C0000000600000002000000000000A0FF9F64C000000080010044C0000000E06355DBBE000000A0FF9F64C0000000C0FFBF7C40000000C05FA5133F0C000000130000001A0600003C00000006000000020000000000006000A0644000000080010044C0000000E06355DBBE00
310
0000A0FF9F64C000000080010044C000000040FEFF1B400C00000013000000220600003C00000006000000020000000000006000A0644000000080010044C0000000E06355DBBE0000006000A0644000000080010044C000000040FEFF1B400C000000130000002A0600003C00000006000000020000000000006000A06440
310
00000080010044C000000040FEFF1B40000000A0FF9F64C000000080010044C000000040FEFF1B400C00000013000000320600003C0000000600000002000000000000A0FF9F64C000000080010044C000000040FEFF1B40000000A0FF9F64C000000080010044C0000000E06355DBBE0C000000130000003A0600003C0000
310
0006000000020000000000006000A0644000000080010044C0000000E06355DBBE000000A0FF9F64C000000080010044C0000000E06355DBBE0C00000013000000420600003C00000006000000020000000000006000A06440000000C0FFBF7C40000000C05FA5133F0000006000A0644000000080010044C000000040FEFF
310
1B400C000000130000004A0600003C00000006000000020000000000006000A06440000000C0FFBF7C40000000C05FA5133F0000006000A06440000000C0FFBF7C40000000A013001C400C00000013000000520600003C00000006000000020000000000006000A06440000000C0FFBF7C40000000A013001C400000006000
310
A0644000000080010044C000000040FEFF1B400C000000130000005A0600003C00000006000000020000000000006000A0644000000080010044C000000040FEFF1B400000006000A0644000000080010044C0000000E06355DBBE0C00000013000000620600003C00000006000000020000000000006000A06440000000C0
310
FFBF7C40000000C05FA5133F0000006000A0644000000080010044C0000000E06355DBBE0C000000130000006A0600003C0000000600000002000000000000A0FF9F64C0000000C0FFBF7C40000000C05FA5133F0000006000A06440000000C0FFBF7C40000000A013001C400C00000013000000720600003C000000060000
310
0002000000000000A0FF9F64C0000000C0FFBF7C40000000C05FA5133F000000A0FF9F64C0000000C0FFBF7C40000000A013001C400C000000130000007A0600003C0000000600000002000000000000A0FF9F64C0000000C0FFBF7C40000000A013001C400000006000A06440000000C0FFBF7C40000000A013001C400C00
310
000013000000820600003C00000006000000020000000000006000A06440000000C0FFBF7C40000000A013001C400000006000A06440000000C0FFBF7C40000000C05FA5133F0C000000130000008A0600003C0000000600000002000000000000A0FF9F64C0000000C0FFBF7C40000000C05FA5133F0000006000A0644000
310
0000C0FFBF7C40000000C05FA5133F0C00000013000000920600003C00000006000000020000000000006000A0644000000080010044C000000040FEFF1B40000000204F1D0D400000002089AA33C000000020FFFF1B400C000000130000009A0600003C000000060000000200000000000080A1721D4000000040879832C0
310
00000040FFFF1B400000006000A0644000000080010044C000000040FEFF1B400C00000013000000A20600003C000000060000000200000000000080A1721D4000000040879832C000000040FFFF1B40000000204F1D0D400000002089AA33C000000020FFFF1B400C00000013000000AA0600003C00000006000000020000
310
00000000A0FF9F64C0000000C0FFBF7C40000000A013001C40000000C082AA33C0000000804D1D0DC0000000E0FFFF1B400C00000013000000B20600003C0000000600000002000000000000A0FF9F64C0000000C0FFBF7C40000000A013001C40000000A0FF9F64C000000080010044C000000040FEFF1B400C0000001300
310
0000BA0600003C0000000600000002000000000000C082AA33C0000000804D1D0DC0000000E0FFFF1B40000000A0FF9F64C000000080010044C000000040FEFF1B400C00000013000000C20600003C0000000600000002000000000000A0FF9F64C0000000C0FFBF7C40000000A013001C40000000C0FCFF33C00000006011
310
9908BF0000000000001C400C00000013000000CA0600003C0000000600000002000000000000C082AA33C0000000804D1D0DC0000000E0FFFF1B40000000C0FCFF33C000000060119908BF0000000000001C400C00000013000000D20600003C0000000600000002000000000000A0FF9F64C0000000C0FFBF7C40000000A0
310
13001C40000000C082AA33C0000000401C1D0D400000002000001C400C00000013000000DA0600003C0000000600000002000000000000C0FCFF33C000000060119908BF0000000000001C40000000C082AA33C0000000401C1D0D400000002000001C400C00000013000000E20600003C0000000600000002000000000000
310
A0FF9F64C0000000C0FFBF7C40000000A013001C40000000E0809832C00000002088721D400000006000001C400C00000013000000EA0600003C0000000600000002000000000000C082AA33C0000000401C1D0D400000002000001C40000000E0809832C00000002088721D400000006000001C400C00000013000000F206
310
00003C0000000600000002000000000000A0FF9F64C0000000C0FFBF7C40000000A013001C400000008067BD30C00000006067E325400000008000001C400C00000013000000FA0600003C0000000600000002000000000000E0809832C00000002088721D400000006000001C400000008067BD30C00000006067E3254000
310
00008000001C400C00000013000000020700003C0000000600000002000000000000A0FF9F64C0000000C0FFBF7C40000000A013001C4000000080BF482CC0000000E0BF482C40000000A000001C400C000000130000000A0700003C00000006000000020000000000008067BD30C00000006067E325400000008000001C40
310
00000080BF482CC0000000E0BF482C40000000A000001C400C00000013000000120700003C0000000600000002000000000000A0FF9F64C0000000C0FFBF7C40000000A013001C400000000067E325C0000000A067BD3040000000C000001C400C000000130000001A0700003C000000060000000200000000000080BF482C
310
C0000000E0BF482C40000000A000001C400000000067E325C0000000A067BD3040000000C000001C400C00000013000000220700003C00000006000000020000000000006000A06440000000C0FFBF7C40000000A013001C400000000067E325C0000000A067BD3040000000C000001C400C000000130000002A0700003C00
310
00000600000002000000000000A0FF9F64C0000000C0FFBF7C40000000A013001C400000006000A06440000000C0FFBF7C40000000A013001C400C00000013000000320700003C00000006000000020000000000006000A06440000000C0FFBF7C40000000A013001C400000004087721DC00000000081983240000000C000
310
001C400C000000130000003A0700003C00000006000000020000000000000067E325C0000000A067BD3040000000C000001C400000004087721DC00000000081983240000000C000001C400C00000013000000420700003C00000006000000020000000000006000A06440000000C0FFBF7C40000000A013001C40000000A0
310
1A1D0DC0000000E082AA3340000000E000001C400C000000130000004A0700003C00000006000000020000000000004087721DC00000000081983240000000C000001C40000000A01A1D0DC0000000E082AA3340000000E000001C400C00000013000000520700003C00000006000000020000000000006000A06440000000
310
C0FFBF7C40000000A013001C40000000C0E2360A3F000000E0FCFF3340000000E000001C400C000000130000005A0700003C0000000600000002000000000000A01A1D0DC0000000E082AA3340000000E000001C40000000C0E2360A3F000000E0FCFF3340000000E000001C400C00000013000000620700003C0000000600
310
0000020000000000006000A06440000000C0FFBF7C40000000A013001C40000000204F1D0D40000000E082AA3340000000E000001C400C000000130000006A0700003C0000000600000002000000000000C0E2360A3F000000E0FCFF3340000000E000001C40000000204F1D0D40000000E082AA3340000000E000001C400C
310
00000013000000720700003C00000006000000020000000000006000A06440000000C0FFBF7C40000000A013001C4000000080A1721D400000000081983240000000C000001C400C000000130000007A0700003C0000000600000002000000000000204F1D0D40000000E082AA3340000000E000001C4000000080A1721D40
310
0000000081983240000000C000001C400C00000013000000820700003C00000006000000020000000000006000A0644000000080010044C000000040FEFF1B4000000080A1721D400000000081983240000000C000001C400C000000130000008A0700003C00000006000000020000000000006000A06440000000C0FFBF7C
310
40000000A013001C400000006000A0644000000080010044C000000040FEFF1B400C00000013000000920700003C00000006000000020000000000006000A0644000000080010044C000000040FEFF1B400000000074E32540000000A067BD3040000000C000001C400C000000130000009A0700003C000000060000000200
310
000000000080A1721D400000000081983240000000C000001C400000000074E32540000000A067BD3040000000C000001C400C00000013000000A20700003C00000006000000020000000000006000A0644000000080010044C000000040FEFF1B4000000080CC482C40000000E0BF482C40000000A000001C400C00000013
310
000000AA0700003C00000006000000020000000000000074E32540000000A067BD3040000000C000001C4000000080CC482C40000000E0BF482C40000000A000001C400C00000013000000B20700003C00000006000000020000000000006000A0644000000080010044C000000040FEFF1B40000000006EBD304000000060
310
67E325400000008000001C400C00000013000000BA0700003C000000060000000200000000000080CC482C40000000E0BF482C40000000A000001C40000000006EBD30400000006067E325400000008000001C400C00000013000000C20700003C00000006000000020000000000006000A0644000000080010044C0000000
310
40FEFF1B4000000060879832400000002088721D400000006000001C400C00000013000000CA0700003C0000000600000002000000000000006EBD30400000006067E325400000008000001C4000000060879832400000002088721D400000006000001C400C00000013000000D20700003C00000006000000020000000000
310
006000A0644000000080010044C000000040FEFF1B400000004089AA3340000000401C1D0D400000002000001C400C00000013000000DA0700003C000000060000000200000000000060879832400000002088721D400000006000001C400000004089AA3340000000401C1D0D400000002000001C400C00000013000000E2
310
0700003C00000006000000020000000000006000A0644000000080010044C000000040FEFF1B40000000400300344000000060119908BF0000000000001C400C00000013000000EA0700003C00000006000000020000000000004089AA3340000000401C1D0D400000002000001C40000000400300344000000060119908BF
310
0000000000001C400C00000013000000F20700003C00000006000000020000000000006000A0644000000080010044C000000040FEFF1B400000004089AA3340000000804D1D0DC0000000E0FFFF1B400C00000013000000FA0700003C0000000600000002000000000000400300344000000060119908BF0000000000001C
310
400000004089AA3340000000804D1D0DC0000000E0FFFF1B400C00000013000000020800003C00000006000000020000000000006000A0644000000080010044C000000040FEFF1B400000006087983240000000A0A0721DC0000000A0FFFF1B400C000000130000000A0800003C00000006000000020000000000004089AA
310
3340000000804D1D0DC0000000E0FFFF1B400000006087983240000000A0A0721DC0000000A0FFFF1B400C00000013000000120800003C0000000600000002000000000000E0809832C0000000A0A0721DC0000000A0FFFF1B40000000A0FF9F64C000000080010044C000000040FEFF1B400C000000130000001A0800003C
310
0000000600000002000000000000C082AA33C0000000804D1D0DC0000000E0FFFF1B40000000E0809832C0000000A0A0721DC0000000A0FFFF1B400C00000013000000220800003C00000006000000020000000000008067BD30C0000000A073E325C000000080FFFF1B40000000A0FF9F64C000000080010044C000000040
310
FEFF1B400C000000130000002A0800003C0000000600000002000000000000E0809832C0000000A0A0721DC0000000A0FFFF1B400000008067BD30C0000000A073E325C000000080FFFF1B400C00000013000000320800003C00000006000000020000000000006000A0644000000080010044C000000040FEFF1B40000000
310
006EBD3040000000A073E325C000000080FFFF1B400C000000130000003A0800003C00000006000000020000000000006087983240000000A0A0721DC0000000A0FFFF1B40000000006EBD3040000000A073E325C000000080FFFF1B400C00000013000000420800003C00000006000000020000000000006000A064400000
310
0080010044C000000040FEFF1B4000000080CC482C4000000020CC482CC000000060FFFF1B400C000000130000004A0800003C0000000600000002000000000000006EBD3040000000A073E325C000000080FFFF1B4000000080CC482C4000000020CC482CC000000060FFFF1B400C00000013000000520800003C00000006
310
0000000200000000000080BF482CC000000020CC482CC000000060FFFF1B40000000A0FF9F64C000000080010044C000000040FEFF1B400C000000130000005A0800003C00000006000000020000000000008067BD30C0000000A073E325C000000080FFFF1B4000000080BF482CC000000020CC482CC000000060FFFF1B40
310
0C00000013000000620800003C00000006000000020000000000000067E325C0000000E06DBD30C000000040FFFF1B40000000A0FF9F64C000000080010044C000000040FEFF1B400C000000130000006A0800003C000000060000000200000000000080BF482CC000000020CC482CC000000060FFFF1B400000000067E325
310
C0000000E06DBD30C000000040FFFF1B400C00000013000000720800003C00000006000000020000000000006000A0644000000080010044C000000040FEFF1B400000000074E32540000000E06DBD30C000000040FFFF1B400C000000130000007A0800003C000000060000000200000000000080CC482C4000000020CC48
310
2CC000000060FFFF1B400000000074E32540000000E06DBD30C000000040FFFF1B400C00000013000000820800003C000000060000000200000000000080A1721D4000000040879832C000000040FFFF1B400000000074E32540000000E06DBD30C000000040FFFF1B400C000000130000008A0800003C0000000600000002
310
0000000000004087721DC000000040879832C000000040FFFF1B40000000A0FF9F64C000000080010044C000000040FEFF1B400C00000013000000920800003C00000006000000020000000000000067E325C0000000E06DBD30C000000040FFFF1B400000004087721DC000000040879832C000000040FFFF1B400C000000
310
130000009A0800003C0000000600000002000000000000A01A1D0DC00000002089AA33C000000020FFFF1B40000000A0FF9F64C000000080010044C000000040FEFF1B400C00000013000000A20800003C00000006000000020000000000004087721DC000000040879832C000000040FFFF1B40000000A01A1D0DC0000000
310
2089AA33C000000020FFFF1B400C00000013000000AA0800003C00000006000000020000000000006000A0644000000080010044C000000040FEFF1B40000000A01A1D0DC00000002089AA33C000000020FFFF1B400C00000013000000B20800003C00000006000000020000000000006000A0644000000080010044C00000
310
0040FEFF1B40000000A0FF9F64C000000080010044C000000040FEFF1B400C00000013000000BA0800003C00000006000000020000000000006000A0644000000080010044C000000040FEFF1B40000000C0E2360A3F00000020030034C000000020FFFF1B400C00000013000000C20800003C000000060000000200000000
310
0000A01A1D0DC00000002089AA33C000000020FFFF1B40000000C0E2360A3F00000020030034C000000020FFFF1B400C00000013000000CA0800003C0000000600000002000000000000C0E2360A3F00000020030034C000000020FFFF1B40000000204F1D0D400000002089AA33C000000020FFFF1B400C00000013000000
310
D20800003C0000000600000002000000000000A0FF9F64C000000080010044C0000000E06355DBBE0000006000A06440000000C0FFBF7C40000000C05FA5133F0C00000013000000DA0800003C0000000600000002000000000000A0FF9F64C000000080010044C0000000E06355DBBE000000A0FF9F64C0000000C0FFBF7C
310
40000000C05FA5133F0C00000013000000E20800003C0000000600000002000000000000A0FF9F64C0000000C0FFBF7C40000000C05FA5133F0000006000A06440000000C0FFBF7C40000000C05FA5133F0C00000013000000EA0800003C00000006000000020000000000006000A06440000000C0FFBF7C40000000C05FA5
310
133F0000006000A0644000000080010044C0000000E06355DBBE0C00000013000000F20800003C0000000600000002000000000000A0FF9F64C000000080010044C0000000E06355DBBE0000006000A0644000000080010044C0000000E06355DBBE
100
AcDbSubDMesh
 71
     2
 72
     0
 91
        0
 92
      154
 10
20.00004959106445
 20
-0.0000469168116979
 30
7.0
 10
20.00004959106445
 20
-0.0003841626166832
 30
2077.0
 10
20.00004959106445
 20
-0.0003841626166832
 30
2077.0
 10
20.00004959106445
 20
-0.0000469168116979
 30
7.0
 10
19.66615676879882
 20
3.638876914978027
 30
2077.0
 10
18.59581565856933
 20
7.361509799957275
 30
2077.0
 10
19.66615676879882
 20
3.639214038848876
 30
7.000000476837158
 10
18.59581565856933
 20
7.361847400665283
 30
7.000001430511474
 10
16.73995971679687
 20
10.94381046295166
 30
2077.0
 10
16.73995971679687
 20
10.94414806365967
 30
7.000001907348632
 10
14.14218521118164
 20
14.14175128936767
 30
2077.0
 10
14.14218521118164
 20
14.14208889007568
 30
7.000002384185791
 10
10.94424438476562
 20
16.73952674865723
 30
2077.0
 10
10.94424438476562
 20
16.7398624420166
 30
7.000002861022949
 10
7.361944198608398
 20
18.59538269042969
 30
2077.0
 10
7.361944198608398
 20
18.59571838378906
 30
7.000002861022949
 10
3.639311075210571
 20
19.66572380065918
 30
2077.0
 10
3.639311075210571
 20
19.66605949401855
 30
7.000003337860107
 10
0.0000500008572999
 20
19.9996166229248
 30
2077.0
 10
-3.639210939407348
 20
19.66572380065918
 30
2077.0
 10
0.0000499999950989
 20
19.99995231628418
 30
7.000003337860107
 10
-3.639210939407348
 20
19.66605949401855
 30
7.000003337860107
 10
-7.361844062805175
 20
18.59538269042969
 30
2077.0
 10
-7.361844062805175
 20
18.59571838378906
 30
7.000002861022949
 10
-10.94414520263672
 20
16.73952674865723
 30
2077.0
 10
-10.94414520263672
 20
16.7398624420166
 30
7.000002861022949
 10
-14.14208602905273
 20
14.14175128936767
 30
2077.0
 10
-14.14208602905273
 20
14.14208889007568
 30
7.000002384185791
 10
-16.73986053466797
 20
10.94381046295166
 30
2077.0
 10
-16.73986053466797
 20
10.94414806365967
 30
7.000001907348632
 10
-18.59571647644043
 20
7.361509799957275
 30
2077.0
 10
-19.66605758666992
 20
3.638876914978027
 30
2077.0
 10
-18.59571647644043
 20
7.361847400665283
 30
7.000001430511474
 10
-19.66605758666992
 20
3.639214038848876
 30
7.000000476837158
 10
-19.99995040893555
 20
-0.0003841618308797
 30
2077.0
 10
-19.66605758666992
 20
-3.639645099639892
 30
2077.0
 10
-19.99995040893555
 20
-0.0000469168116979
 30
7.0
 10
-19.66605758666992
 20
-3.639307975769042
 30
6.999999523162841
 10
-18.59571647644043
 20
-7.362278461456298
 30
2077.0
 10
-18.59571647644043
 20
-7.361940860748291
 30
6.999998569488525
 10
-16.73986053466797
 20
-10.94457912445068
 30
2077.0
 10
-16.73986053466797
 20
-10.94424152374267
 30
6.999998092651367
 10
-14.14208602905273
 20
-14.1425199508667
 30
2077.0
 10
-14.14208602905273
 20
-14.14218235015869
 30
6.999997615814208
 10
-10.94414520263672
 20
-16.74029350280761
 30
2077.0
 10
-10.94414520263672
 20
-16.73995780944824
 30
6.99999713897705
 10
-7.361844062805175
 20
-18.59614944458008
 30
2077.0
 10
-7.361844062805175
 20
-18.5958137512207
 30
6.99999713897705
 10
-3.639210939407348
 20
-19.66649055480957
 30
2077.0
 10
-3.639210939407348
 20
-19.66615486145019
 30
6.999996662139892
 10
0.0000499992638652
 20
-20.0003833770752
 30
2077.0
 10
0.0000499999950989
 20
-20.00004768371582
 30
6.999996662139892
 10
3.639311075210571
 20
-19.66649055480957
 30
2077.0
 10
3.639311075210571
 20
-19.66615486145019
 30
6.999996662139892
 10
7.361944198608398
 20
-18.59614944458008
 30
2077.0
 10
7.361944198608398
 20
-18.5958137512207
 30
6.99999713897705
 10
10.94424438476562
 20
-16.74029350280761
 30
2077.0
 10
10.94424438476562
 20
-16.73995780944824
 30
6.99999713897705
 10
14.14218521118164
 20
-14.1425199508667
 30
2077.0
 10
14.14218521118164
 20
-14.14218235015869
 30
6.999997615814208
 10
16.73995971679687
 20
-10.94457912445068
 30
2077.0
 10
16.73995971679687
 20
-10.94424152374267
 30
6.999998092651367
 10
18.59581565856933
 20
-7.362278461456298
 30
2077.0
 10
18.59581565856933
 20
-7.361940860748291
 30
6.999998569488525
 10
19.66615676879882
 20
-3.639645099639892
 30
2077.0
 10
19.66615676879882
 20
-3.639307975769042
 30
6.999999523162841
 10
0.0000499992638652
 20
-20.0003833770752
 30
2077.0
 10
3.639311075210571
 20
-19.66649055480957
 30
2077.0
 10
16.73995971679687
 20
-10.94457912445068
 30
2077.0
 10
18.59581565856933
 20
-7.362278461456298
 30
2077.0
 10
14.14218521118164
 20
-14.1425199508667
 30
2077.0
 10
10.94424438476562
 20
-16.74029350280761
 30
2077.0
 10
19.66615676879882
 20
-3.639645099639892
 30
2077.0
 10
7.361944198608398
 20
-18.59614944458008
 30
2077.0
 10
20.00004959106445
 20
-0.0003841626166832
 30
2077.0
 10
19.66615676879882
 20
3.638876914978027
 30
2077.0
 10
18.59581565856933
 20
7.361509799957275
 30
2077.0
 10
16.73995971679687
 20
10.94381046295166
 30
2077.0
 10
14.14218521118164
 20
14.14175128936767
 30
2077.0
 10
10.94424438476562
 20
16.73952674865723
 30
2077.0
 10
7.361944198608398
 20
18.59538269042969
 30
2077.0
 10
3.639311075210571
 20
19.66572380065918
 30
2077.0
 10
0.0000500008572999
 20
19.9996166229248
 30
2077.0
 10
-3.639210939407348
 20
19.66572380065918
 30
2077.0
 10
-7.361844062805175
 20
18.59538269042969
 30
2077.0
 10
-10.94414520263672
 20
16.73952674865723
 30
2077.0
 10
-14.14208602905273
 20
14.14175128936767
 30
2077.0
 10
-16.73986053466797
 20
10.94381046295166
 30
2077.0
 10
-18.59571647644043
 20
7.361509799957275
 30
2077.0
 10
-19.66605758666992
 20
3.638876914978027
 30
2077.0
 10
-19.99995040893555
 20
-0.0003841618308797
 30
2077.0
 10
-19.66605758666992
 20
-3.639645099639892
 30
2077.0
 10
-18.59571647644043
 20
-7.362278461456298
 30
2077.0
 10
-16.73986053466797
 20
-10.94457912445068
 30
2077.0
 10
-14.14208602905273
 20
-14.1425199508667
 30
2077.0
 10
-10.94414520263672
 20
-16.74029350280761
 30
2077.0
 10
-7.361844062805175
 20
-18.59614944458008
 30
2077.0
 10
-3.639210939407348
 20
-19.66649055480957
 30
2077.0
 10
-164.9999542236328
 20
-40.00004577636718
 30
-0.0000065168273977
 10
-164.9999542236328
 20
-40.00004577636718
 30
6.999993324279785
 10
-164.9999542236328
 20
459.9999389648437
 30
7.000074863433837
 10
-164.9999542236328
 20
459.9999389648437
 30
0.0000749435130274
 10
165.0000457763672
 20
-40.00004577636718
 30
-0.0000065168273977
 10
165.0000457763672
 20
-40.00004577636718
 30
6.999993324279785
 10
-164.9999542236328
 20
-40.00004577636718
 30
6.999993324279785
 10
-164.9999542236328
 20
-40.00004577636718
 30
-0.0000065168273977
 10
165.0000457763672
 20
459.9999389648437
 30
0.0000749435130274
 10
165.0000457763672
 20
459.9999389648437
 30
7.000074863433837
 10
165.0000457763672
 20
-40.00004577636718
 30
6.999993324279785
 10
165.0000457763672
 20
-40.00004577636718
 30
-0.0000065168273977
 10
-164.9999542236328
 20
459.9999389648437
 30
0.0000749435130274
 10
-164.9999542236328
 20
459.9999389648437
 30
7.000074863433837
 10
165.0000457763672
 20
459.9999389648437
 30
7.000074863433837
 10
165.0000457763672
 20
459.9999389648437
 30
0.0000749435130274
 10
7.361944198608398
 20
-18.5958137512207
 30
6.99999713897705
 10
-164.9999542236328
 20
459.9999389648437
 30
7.000074863433837
 10
-19.66605758666992
 20
-3.639307975769042
 30
6.999999523162841
 10
-19.99995040893555
 20
-0.0000469168116979
 30
7.0
 10
-19.66605758666992
 20
3.639214038848876
 30
7.000000476837158
 10
-18.59571647644043
 20
7.361847400665283
 30
7.000001430511474
 10
-16.73986053466797
 20
10.94414806365967
 30
7.000001907348632
 10
-14.14208602905273
 20
14.14208889007568
 30
7.000002384185791
 10
165.0000457763672
 20
459.9999389648437
 30
7.000074863433837
 10
-10.94414520263672
 20
16.7398624420166
 30
7.000002861022949
 10
-7.361844062805175
 20
18.59571838378906
 30
7.000002861022949
 10
-3.639210939407348
 20
19.66605949401855
 30
7.000003337860107
 10
0.0000499999950989
 20
19.99995231628418
 30
7.000003337860107
 10
3.639311075210571
 20
19.66605949401855
 30
7.000003337860107
 10
165.0000457763672
 20
-40.00004577636718
 30
6.999993324279785
 10
7.361944198608398
 20
18.59571838378906
 30
7.000002861022949
 10
10.94424438476562
 20
16.7398624420166
 30
7.000002861022949
 10
14.14218521118164
 20
14.14208889007568
 30
7.000002384185791
 10
16.73995971679687
 20
10.94414806365967
 30
7.000001907348632
 10
18.59581565856933
 20
7.361847400665283
 30
7.000001430511474
 10
19.66615676879882
 20
3.639214038848876
 30
7.000000476837158
 10
20.00004959106445
 20
-0.0000469168116979
 30
7.0
 10
19.66615676879882
 20
-3.639307975769042
 30
6.999999523162841
 10
-18.59571647644043
 20
-7.361940860748291
 30
6.999998569488525
 10
-16.73986053466797
 20
-10.94424152374267
 30
6.999998092651367
 10
18.59581565856933
 20
-7.361940860748291
 30
6.999998569488525
 10
16.73995971679687
 20
-10.94424152374267
 30
6.999998092651367
 10
-14.14208602905273
 20
-14.14218235015869
 30
6.999997615814208
 10
-10.94414520263672
 20
-16.73995780944824
 30
6.99999713897705
 10
14.14218521118164
 20
-14.14218235015869
 30
6.999997615814208
 10
10.94424438476562
 20
-16.73995780944824
 30
6.99999713897705
 10
-7.361844062805175
 20
-18.5958137512207
 30
6.99999713897705
 10
-3.639210939407348
 20
-19.66615486145019
 30
6.999996662139892
 10
-164.9999542236328
 20
-40.00004577636718
 30
6.999993324279785
 10
0.0000499999950989
 20
-20.00004768371582
 30
6.999996662139892
 10
3.639311075210571
 20
-19.66615486145019
 30
6.999996662139892
 10
-164.9999542236328
 20
-40.00004577636718
 30
-0.0000065168273977
 10
-164.9999542236328
 20
459.9999389648437
 30
0.0000749435130274
 10
165.0000457763672
 20
459.9999389648437
 30
0.0000749435130274
 10
165.0000457763672
 20
-40.00004577636718
 30
-0.0000065168273977
 93
      560
 90
        3
 90
       64
 90
        0
 90
        1
 90
        3
 90
        6
 90
        2
 90
        3
 90
        3
 90
        6
 90
        4
 90
        2
 90
        3
 90
        6
 90
        5
 90
        4
 90
        3
 90
        7
 90
        5
 90
        6
 90
        3
 90
        9
 90
        5
 90
        7
 90
        3
 90
        9
 90
        8
 90
        5
 90
        3
 90
       11
 90
        8
 90
        9
 90
        3
 90
       11
 90
       10
 90
        8
 90
        3
 90
       13
 90
       10
 90
       11
 90
        3
 90
       13
 90
       12
 90
       10
 90
        3
 90
       15
 90
       12
 90
       13
 90
        3
 90
       15
 90
       14
 90
       12
 90
        3
 90
       17
 90
       14
 90
       15
 90
        3
 90
       17
 90
       16
 90
       14
 90
        3
 90
       20
 90
       16
 90
       17
 90
        3
 90
       20
 90
       18
 90
       16
 90
        3
 90
       20
 90
       19
 90
       18
 90
        3
 90
       21
 90
       19
 90
       20
 90
        3
 90
       23
 90
       19
 90
       21
 90
        3
 90
       23
 90
       22
 90
       19
 90
        3
 90
       25
 90
       22
 90
       23
 90
        3
 90
       25
 90
       24
 90
       22
 90
        3
 90
       27
 90
       24
 90
       25
 90
        3
 90
       27
 90
       26
 90
       24
 90
        3
 90
       29
 90
       26
 90
       27
 90
        3
 90
       29
 90
       28
 90
       26
 90
        3
 90
       32
 90
       28
 90
       29
 90
        3
 90
       32
 90
       30
 90
       28
 90
        3
 90
       32
 90
       31
 90
       30
 90
        3
 90
       33
 90
       31
 90
       32
 90
        3
 90
       36
 90
       31
 90
       33
 90
        3
 90
       36
 90
       34
 90
       31
 90
        3
 90
       36
 90
       35
 90
       34
 90
        3
 90
       37
 90
       35
 90
       36
 90
        3
 90
       39
 90
       35
 90
       37
 90
        3
 90
       39
 90
       38
 90
       35
 90
        3
 90
       41
 90
       38
 90
       39
 90
        3
 90
       41
 90
       40
 90
       38
 90
        3
 90
       43
 90
       40
 90
       41
 90
        3
 90
       43
 90
       42
 90
       40
 90
        3
 90
       45
 90
       42
 90
       43
 90
        3
 90
       45
 90
       44
 90
       42
 90
        3
 90
       47
 90
       44
 90
       45
 90
        3
 90
       47
 90
       46
 90
       44
 90
        3
 90
       49
 90
       46
 90
       47
 90
        3
 90
       49
 90
       48
 90
       46
 90
        3
 90
       51
 90
       48
 90
       49
 90
        3
 90
       51
 90
       50
 90
       48
 90
        3
 90
       53
 90
       50
 90
       51
 90
        3
 90
       53
 90
       52
 90
       50
 90
        3
 90
       55
 90
       52
 90
       53
 90
        3
 90
       55
 90
       54
 90
       52
 90
        3
 90
       57
 90
       54
 90
       55
 90
        3
 90
       57
 90
       56
 90
       54
 90
        3
 90
       59
 90
       56
 90
       57
 90
        3
 90
       59
 90
       58
 90
       56
 90
        3
 90
       61
 90
       58
 90
       59
 90
        3
 90
       61
 90
       60
 90
       58
 90
        3
 90
       63
 90
       60
 90
       61
 90
        3
 90
       63
 90
       62
 90
       60
 90
        3
 90
       65
 90
       62
 90
       63
 90
        3
 90
       65
 90
       64
 90
       62
 90
        3
 90
        0
 90
       64
 90
       65
 90
        3
 90
       73
 90
       66
 90
       67
 90
        3
 90
       72
 90
       68
 90
       69
 90
        3
 90
       72
 90
       70
 90
       68
 90
        3
 90
       72
 90
       71
 90
       70
 90
        3
 90
       74
 90
       71
 90
       72
 90
        3
 90
       74
 90
       73
 90
       71
 90
        3
 90
       75
 90
       73
 90
       74
 90
        3
 90
       76
 90
       73
 90
       75
 90
        3
 90
       77
 90
       73
 90
       76
 90
        3
 90
       78
 90
       73
 90
       77
 90
        3
 90
       79
 90
       73
 90
       78
 90
        3
 90
       80
 90
       73
 90
       79
 90
        3
 90
       81
 90
       73
 90
       80
 90
        3
 90
       82
 90
       73
 90
       81
 90
        3
 90
       83
 90
       73
 90
       82
 90
        3
 90
       84
 90
       73
 90
       83
 90
        3
 90
       85
 90
       73
 90
       84
 90
        3
 90
       86
 90
       73
 90
       85
 90
        3
 90
       87
 90
       73
 90
       86
 90
        3
 90
       88
 90
       73
 90
       87
 90
        3
 90
       89
 90
       73
 90
       88
 90
        3
 90
       90
 90
       73
 90
       89
 90
        3
 90
       91
 90
       73
 90
       90
 90
        3
 90
       92
 90
       73
 90
       91
 90
        3
 90
       93
 90
       73
 90
       92
 90
        3
 90
       94
 90
       73
 90
       93
 90
        3
 90
       95
 90
       73
 90
       94
 90
        3
 90
       96
 90
       73
 90
       95
 90
        3
 90
       97
 90
       73
 90
       96
 90
        3
 90
       66
 90
       73
 90
       97
 90
        3
 90
      100
 90
       98
 90
       99
 90
        3
 90
       98
 90
      100
 90
      101
 90
        3
 90
      104
 90
      102
 90
      103
 90
        3
 90
      102
 90
      104
 90
      105
 90
        3
 90
      108
 90
      106
 90
      107
 90
        3
 90
      106
 90
      108
 90
      109
 90
        3
 90
      112
 90
      110
 90
      111
 90
        3
 90
      110
 90
      112
 90
      113
 90
        3
 90
      149
 90
      128
 90
      114
 90
        3
 90
      116
 90
      115
 90
      147
 90
        3
 90
      117
 90
      115
 90
      116
 90
        3
 90
      118
 90
      115
 90
      117
 90
        3
 90
      119
 90
      115
 90
      118
 90
        3
 90
      120
 90
      115
 90
      119
 90
        3
 90
      121
 90
      115
 90
      120
 90
        3
 90
      123
 90
      115
 90
      121
 90
        3
 90
      123
 90
      122
 90
      115
 90
        3
 90
      124
 90
      122
 90
      123
 90
        3
 90
      125
 90
      122
 90
      124
 90
        3
 90
      126
 90
      122
 90
      125
 90
        3
 90
      127
 90
      122
 90
      126
 90
        3
 90
      129
 90
      122
 90
      127
 90
        3
 90
      129
 90
      128
 90
      122
 90
        3
 90
      130
 90
      128
 90
      129
 90
        3
 90
      131
 90
      128
 90
      130
 90
        3
 90
      132
 90
      128
 90
      131
 90
        3
 90
      133
 90
      128
 90
      132
 90
        3
 90
      134
 90
      128
 90
      133
 90
        3
 90
      135
 90
      128
 90
      134
 90
        3
 90
      136
 90
      128
 90
      135
 90
        3
 90
      139
 90
      128
 90
      136
 90
        3
 90
      147
 90
      137
 90
      116
 90
        3
 90
      147
 90
      138
 90
      137
 90
        3
 90
      140
 90
      128
 90
      139
 90
        3
 90
      143
 90
      128
 90
      140
 90
        3
 90
      147
 90
      141
 90
      138
 90
        3
 90
      147
 90
      142
 90
      141
 90
        3
 90
      144
 90
      128
 90
      143
 90
        3
 90
      114
 90
      128
 90
      144
 90
        3
 90
      147
 90
      145
 90
      142
 90
        3
 90
      147
 90
      146
 90
      145
 90
        3
 90
      128
 90
      146
 90
      147
 90
        3
 90
      128
 90
      148
 90
      146
 90
        3
 90
      128
 90
      149
 90
      148
 90
        3
 90
      152
 90
      150
 90
      151
 90
        3
 90
      150
 90
      152
 90
      153
 94
      287
 90
        0
 90
       64
 90
        0
 90
        1
 90
        1
 90
       64
 90
        2
 90
        6
 90
        2
 90
        3
 90
        3
 90
        6
 90
        4
 90
        6
 90
        2
 90
        4
 90
        5
 90
        6
 90
        4
 90
        5
 90
        5
 90
        7
 90
        6
 90
        7
 90
        5
 90
        9
 90
        7
 90
        9
 90
        8
 90
        9
 90
        5
 90
        8
 90
        8
 90
       11
 90
        9
 90
       11
 90
       10
 90
       11
 90
        8
 90
       10
 90
       10
 90
       13
 90
       11
 90
       13
 90
       12
 90
       13
 90
       10
 90
       12
 90
       12
 90
       15
 90
       13
 90
       15
 90
       14
 90
       15
 90
       12
 90
       14
 90
       14
 90
       17
 90
       15
 90
       17
 90
       16
 90
       17
 90
       14
 90
       16
 90
       16
 90
       20
 90
       17
 90
       20
 90
       18
 90
       20
 90
       16
 90
       18
 90
       19
 90
       20
 90
       18
 90
       19
 90
       19
 90
       21
 90
       20
 90
       21
 90
       19
 90
       23
 90
       21
 90
       23
 90
       22
 90
       23
 90
       19
 90
       22
 90
       22
 90
       25
 90
       23
 90
       25
 90
       24
 90
       25
 90
       22
 90
       24
 90
       24
 90
       27
 90
       25
 90
       27
 90
       26
 90
       27
 90
       24
 90
       26
 90
       26
 90
       29
 90
       27
 90
       29
 90
       28
 90
       29
 90
       26
 90
       28
 90
       28
 90
       32
 90
       29
 90
       32
 90
       30
 90
       32
 90
       28
 90
       30
 90
       31
 90
       32
 90
       30
 90
       31
 90
       31
 90
       33
 90
       32
 90
       33
 90
       31
 90
       36
 90
       33
 90
       36
 90
       34
 90
       36
 90
       31
 90
       34
 90
       35
 90
       36
 90
       34
 90
       35
 90
       35
 90
       37
 90
       36
 90
       37
 90
       35
 90
       39
 90
       37
 90
       39
 90
       38
 90
       39
 90
       35
 90
       38
 90
       38
 90
       41
 90
       39
 90
       41
 90
       40
 90
       41
 90
       38
 90
       40
 90
       40
 90
       43
 90
       41
 90
       43
 90
       42
 90
       43
 90
       40
 90
       42
 90
       42
 90
       45
 90
       43
 90
       45
 90
       44
 90
       45
 90
       42
 90
       44
 90
       44
 90
       47
 90
       45
 90
       47
 90
       46
 90
       47
 90
       44
 90
       46
 90
       46
 90
       49
 90
       47
 90
       49
 90
       48
 90
       49
 90
       46
 90
       48
 90
       48
 90
       51
 90
       49
 90
       51
 90
       50
 90
       51
 90
       48
 90
       50
 90
       50
 90
       53
 90
       51
 90
       53
 90
       52
 90
       53
 90
       50
 90
       52
 90
       52
 90
       55
 90
       53
 90
       55
 90
       54
 90
       55
 90
       52
 90
       54
 90
       54
 90
       57
 90
       55
 90
       57
 90
       56
 90
       57
 90
       54
 90
       56
 90
       56
 90
       59
 90
       57
 90
       59
 90
       58
 90
       59
 90
       56
 90
       58
 90
       58
 90
       61
 90
       59
 90
       61
 90
       60
 90
       61
 90
       58
 90
       60
 90
       60
 90
       63
 90
       61
 90
       63
 90
       62
 90
       63
 90
       60
 90
       62
 90
       62
 90
       65
 90
       63
 90
       65
 90
       64
 90
       65
 90
       62
 90
       64
 90
        0
 90
       65
 90
       66
 90
       73
 90
       66
 90
       67
 90
       67
 90
       73
 90
       68
 90
       72
 90
       68
 90
       69
 90
       69
 90
       72
 90
       70
 90
       72
 90
       68
 90
       70
 90
       71
 90
       72
 90
       70
 90
       71
 90
       71
 90
       74
 90
       72
 90
       74
 90
       73
 90
       74
 90
       71
 90
       73
 90
       73
 90
       75
 90
       74
 90
       75
 90
       73
 90
       76
 90
       75
 90
       76
 90
       73
 90
       77
 90
       76
 90
       77
 90
       73
 90
       78
 90
       77
 90
       78
 90
       73
 90
       79
 90
       78
 90
       79
 90
       73
 90
       80
 90
       79
 90
       80
 90
       73
 90
       81
 90
       80
 90
       81
 90
       73
 90
       82
 90
       81
 90
       82
 90
       73
 90
       83
 90
       82
 90
       83
 90
       73
 90
       84
 90
       83
 90
       84
 90
       73
 90
       85
 90
       84
 90
       85
 90
       73
 90
       86
 90
       85
 90
       86
 90
       73
 90
       87
 90
       86
 90
       87
 90
       73
 90
       88
 90
       87
 90
       88
 90
       73
 90
       89
 90
       88
 90
       89
 90
       73
 90
       90
 90
       89
 90
       90
 90
       73
 90
       91
 90
       90
 90
       91
 90
       73
 90
       92
 90
       91
 90
       92
 90
       73
 90
       93
 90
       92
 90
       93
 90
       73
 90
       94
 90
       93
 90
       94
 90
       73
 90
       95
 90
       94
 90
       95
 90
       73
 90
       96
 90
       95
 90
       96
 90
       73
 90
       97
 90
       96
 90
       97
 90
       66
 90
       97
 90
       98
 90
      100
 90
       98
 90
       99
 90
       99
 90
      100
 90
      100
 90
      101
 90
       98
 90
      101
 90
      102
 90
      104
 90
      102
 90
      103
 90
      103
 90
      104
 90
      104
 90
      105
 90
      102
 90
      105
 90
      106
 90
      108
 90
      106
 90
      107
 90
      107
 90
      108
 90
      108
 90
      109
 90
      106
 90
      109
 90
      110
 90
      112
 90
      110
 90
      111
 90
      111
 90
      112
 90
      112
 90
      113
 90
      110
 90
      113
 90
      128
 90
      149
 90
      114
 90
      128
 90
      114
 90
      149
 90
      115
 90
      116
 90
      115
 90
      147
 90
      116
 90
      147
 90
      115
 90
      117
 90
      116
 90
      117
 90
      115
 90
      118
 90
      117
 90
      118
 90
      115
 90
      119
 90
      118
 90
      119
 90
      115
 90
      120
 90
      119
 90
      120
 90
      115
 90
      121
 90
      120
 90
      121
 90
      115
 90
      123
 90
      121
 90
      123
 90
      122
 90
      123
 90
      115
 90
      122
 90
      122
 90
      124
 90
      123
 90
      124
 90
      122
 90
      125
 90
      124
 90
      125
 90
      122
 90
      126
 90
      125
 90
      126
 90
      122
 90
      127
 90
      126
 90
      127
 90
      122
 90
      129
 90
      127
 90
      129
 90
      128
 90
      129
 90
      122
 90
      128
 90
      128
 90
      130
 90
      129
 90
      130
 90
      128
 90
      131
 90
      130
 90
      131
 90
      128
 90
      132
 90
      131
 90
      132
 90
      128
 90
      133
 90
      132
 90
      133
 90
      128
 90
      134
 90
      133
 90
      134
 90
      128
 90
      135
 90
      134
 90
      135
 90
      128
 90
      136
 90
      135
 90
      136
 90
      128
 90
      139
 90
      136
 90
      139
 90
      137
 90
      147
 90
      116
 90
      137
 90
      138
 90
      147
 90
      137
 90
      138
 90
      128
 90
      140
 90
      139
 90
      140
 90
      128
 90
      143
 90
      140
 90
      143
 90
      141
 90
      147
 90
      138
 90
      141
 90
      142
 90
      147
 90
      141
 90
      142
 90
      128
 90
      144
 90
      143
 90
      144
 90
      114
 90
      144
 90
      145
 90
      147
 90
      142
 90
      145
 90
      146
 90
      147
 90
      145
 90
      146
 90
      128
 90
      146
 90
      128
 90
      147
 90
      128
 90
      148
 90
      146
 90
      148
 90
      148
 90
      149
 90
      150
 90
      152
 90
      150
 90
      151
 90
      151
 90
      152
 90
      152
 90
      153
 90
      150
 90
      153
 95
      287
140
0.0
140
0.0
140
0.0
140
0.0
140
0.0
140
0.0
140
0.0
140
0.0
140
0.0
140
0.0
140
0.0
140
0.0
140
0.0
140
0.0
140
0.0
140
0.0
140
0.0
140
0.0
140
0.0
140
0.0
140
0.0
140
0.0
140
0.0
140
0.0
140
0.0
140
0.0
140
0.0
140
0.0
140
0.0
140
0.0
140
0.0
140
0.0
140
0.0
140
0.0
140
0.0
140
0.0
140
0.0
140
0.0
140
0.0
140
0.0
140
0.0
140
0.0
140
0.0
140
0.0
140
0.0
140
0.0
140
0.0
140
0.0
140
0.0
140
0.0
140
0.0
140
0.0
140
0.0
140
0.0
140
0.0
140
0.0
140
0.0
140
0.0
140
0.0
140
0.0
140
0.0
140
0.0
140
0.0
140
0.0
140
0.0
140
0.0
140
0.0
140
0.0
140
0.0
140
0.0
140
0.0
140
0.0
140
0.0
140
0.0
140
0.0
140
0.0
140
0.0
140
0.0
140
0.0
140
0.0
140
0.0
140
0.0
140
0.0
140
0.0
140
0.0
140
0.0
140
0.0
140
0.0
140
0.0
140
0.0
140
0.0
140
0.0
140
0.0
140
0.0
140
0.0
140
0.0
140
0.0
140
0.0
140
0.0
140
0.0
140
0.0
140
0.0
140
0.0
140
0.0
140
0.0
140
0.0
140
0.0
140
0.0
140
0.0
140
0.0
140
0.0
140
0.0
140
0.0
140
0.0
140
0.0
140
0.0
140
0.0
140
0.0
140
0.0
140
0.0
140
0.0
140
0.0
140
0.0
140
0.0
140
0.0
140
0.0
140
0.0
140
0.0
140
0.0
140
0.0
140
0.0
140
0.0
140
0.0
140
0.0
140
0.0
140
0.0
140
0.0
140
0.0
140
0.0
140
0.0
140
0.0
140
0.0
140
0.0
140
0.0
140
0.0
140
0.0
140
0.0
140
0.0
140
0.0
140
0.0
140
0.0
140
0.0
140
0.0
140
0.0
140
0.0
140
0.0
140
0.0
140
0.0
140
0.0
140
0.0
140
0.0
140
0.0
140
0.0
140
0.0
140
0.0
140
0.0
140
0.0
140
0.0
140
0.0
140
0.0
140
0.0
140
0.0
140
0.0
140
0.0
140
0.0
140
0.0
140
0.0
140
0.0
140
0.0
140
0.0
140
0.0
140
0.0
140
0.0
140
0.0
140
0.0
140
0.0
140
0.0
140
0.0
140
0.0
140
0.0
140
0.0
140
0.0
140
0.0
140
0.0
140
0.0
140
0.0
140
0.0
140
0.0
140
0.0
140
0.0
140
0.0
140
0.0
140
0.0
140
0.0
140
0.0
140
0.0
140
0.0
140
0.0
140
0.0
140
0.0
140
0.0
140
0.0
140
0.0
140
0.0
140
0.0
140
0.0
140
0.0
140
0.0
140
0.0
140
0.0
140
0.0
140
0.0
140
0.0
140
0.0
140
0.0
140
0.0
140
0.0
140
0.0
140
0.0
140
0.0
140
0.0
140
0.0
140
0.0
140
0.0
140
0.0
140
0.0
140
0.0
140
0.0
140
0.0
140
0.0
140
0.0
140
0.0
140
0.0
140
0.0
140
0.0
140
0.0
140
0.0
140
0.0
140
0.0
140
0.0
140
0.0
140
0.0
140
0.0
140
0.0
140
0.0
140
0.0
140
0.0
140
0.0
140
0.0
140
0.0
140
0.0
140
0.0
140
0.0
140
0.0
140
0.0
140
0.0
140
0.0
140
0.0
140
0.0
140
0.0
140
0.0
140
0.0
140
0.0
140
0.0
140
0.0
140
0.0
140
0.0
140
0.0
140
0.0
140
0.0
140
0.0
140
0.0
140
0.0
140
0.0
140
0.0
140
0.0
140
0.0
 90
        0
  0
MESH
  5
FA
102
{ACAD_REACTORS
330
FE
330
FD
102
}
330
1F
100
AcDbEntity
  8
0
 62
     9
420
 12566463
160
              7352
310
B81C0000CC0000000C00000013000000020000003C000000060000000200000000000000006063C000000040FDDF634000000000005CA040000000000060634000000040FDDF634000000000006CA0400C000000130000000A0000003C000000060000000200000000000000006063C000000040FDDF634000000000005CA0
310
4000000000006063C000000040FDDF634000000000006CA0400C00000013000000120000003C000000060000000200000000000000006063C000000040FDDF634000000000006CA040000000000060634000000040FDDF634000000000006CA0400C000000130000001A0000003C0000000600000002000000000000000060
310
634000000040FDDF634000000000006CA040000000000060634000000040FDDF634000000000005CA0400C00000013000000220000003C000000060000000200000000000000006063C000000040FDDF634000000000005CA040000000000060634000000040FDDF634000000000005CA0400C000000130000002A0000003C
310
0000000600000002000000000000000060634000000040FDDF634000000000005CA040000000000060634000000040FF67824000000000006CA0400C00000013000000320000003C0000000600000002000000000000000060634000000040FDDF634000000000005CA040000000000060634000000040FDDF634000000000
310
006CA0400C000000130000003A0000003C0000000600000002000000000000000060634000000040FDDF634000000000006CA040000000000060634000000040FF67824000000000006CA0400C00000013000000420000003C0000000600000002000000000000000060634000000040FF67824000000000006CA040000000
310
000060634000000040FF67824000000000005CA0400C000000130000004A0000003C0000000600000002000000000000000060634000000040FDDF634000000000005CA040000000000060634000000040FF67824000000000005CA0400C00000013000000520000003C000000060000000200000000000000006063400000
310
0040FF67824000000000005CA04000000000006063C000000040FF67824000000000006CA0400C000000130000005A0000003C0000000600000002000000000000000060634000000040FF67824000000000005CA040000000000060634000000040FF67824000000000006CA0400C00000013000000620000003C00000006
310
00000002000000000000000060634000000040FF67824000000000006CA04000000000006063C000000040FF67824000000000006CA0400C000000130000006A0000003C000000060000000200000000000000006063C000000040FF67824000000000006CA04000000000006063C000000040FF67824000000000005CA040
310
0C00000013000000720000003C0000000600000002000000000000000060634000000040FF67824000000000005CA04000000000006063C000000040FF67824000000000005CA0400C000000130000007A0000003C000000060000000200000000000000006063C000000040FF67824000000000005CA04000000000006063
310
C000000040FDDF634000000000006CA0400C00000013000000820000003C000000060000000200000000000000006063C000000040FF67824000000000005CA04000000000006063C000000040FF67824000000000006CA0400C000000130000008A0000003C000000060000000200000000000000006063C000000040FF67
310
824000000000006CA04000000000006063C000000040FDDF634000000000006CA0400C00000013000000920000003C000000060000000200000000000000006063C000000040FDDF634000000000006CA04000000000006063C000000040FDDF634000000000005CA0400C000000130000009A0000003C0000000600000002
310
00000000000000006063C000000040FF67824000000000005CA04000000000006063C000000040FDDF634000000000005CA0400C00000013000000A20000003C0000000600000002000000000000000060634000000040FF67824000000000005CA04000000000006063C000000040FDDF634000000000005CA0400C000000
310
13000000AA0000003C0000000600000002000000000000000060634000000040FF67824000000000005CA04000000000006063C000000040FF67824000000000005CA0400C00000013000000B20000003C000000060000000200000000000000006063C000000040FF67824000000000005CA04000000000006063C0000000
310
40FDDF634000000000005CA0400C00000013000000BA0000003C000000060000000200000000000000006063C000000040FDDF634000000000005CA040000000000060634000000040FDDF634000000000005CA0400C00000013000000C20000003C0000000600000002000000000000000060634000000040FF6782400000
310
0000005CA040000000000060634000000040FDDF634000000000005CA0400C00000013000000CA0000003C00000006000000020000000000000000B8664000000040FFED8340000000000048A0400000000000B8664000000080FAEF5D40000000000038A0400C00000013000000D20000003C000000060000000200000000
310
00000000B8664000000040FFED8340000000000048A0400000000000B8664000000040FFED8340000000000038A0400C00000013000000DA0000003C00000006000000020000000000000000B8664000000040FFED8340000000000038A0400000000000B8664000000080FAEF5D40000000000038A0400C00000013000000
310
E20000003C00000006000000020000000000000000B8664000000080FAEF5D40000000000038A0400000000000B8664000000080FAEF5D40000000000048A0400C00000013000000EA0000003C00000006000000020000000000000000B8664000000040FFED8340000000000048A0400000000000B8664000000080FAEF5D
310
40000000000048A0400C00000013000000F20000003C00000006000000020000000000000000B8664000000080FAEF5D40000000000048A0400000000000B866C000000080FAEF5D40000000000038A0400C00000013000000FA0000003C00000006000000020000000000000000B8664000000080FAEF5D40000000000048
310
A0400000000000B8664000000080FAEF5D40000000000038A0400C00000013000000020100003C00000006000000020000000000000000B8664000000080FAEF5D40000000000038A0400000000000B866C000000080FAEF5D40000000000038A0400C000000130000000A0100003C00000006000000020000000000000000
310
B866C000000080FAEF5D40000000000038A0400000000000B866C000000080FAEF5D40000000000048A0400C00000013000000120100003C00000006000000020000000000000000B8664000000080FAEF5D40000000000048A0400000000000B866C000000080FAEF5D40000000000048A0400C000000130000001A010000
310
3C00000006000000020000000000000000B866C000000040FFED8340000000000048A0400000000000B866C000000080FAEF5D40000000000038A0400C00000013000000220100003C00000006000000020000000000000000B866C000000040FFED8340000000000048A0400000000000B866C000000080FAEF5D40000000
310
000048A0400C000000130000002A0100003C00000006000000020000000000000000B866C000000080FAEF5D40000000000048A0400000000000B866C000000080FAEF5D40000000000038A0400C00000013000000320100003C00000006000000020000000000000000B866C000000080FAEF5D40000000000038A0400000
310
000000B866C000000040FFED8340000000000038A0400C000000130000003A0100003C00000006000000020000000000000000B866C000000040FFED8340000000000048A0400000000000B866C000000040FFED8340000000000038A0400C00000013000000420100003C00000006000000020000000000000000B866C000
310
000040FFED8340000000000048A0400000000000B8664000000040FFED8340000000000038A0400C000000130000004A0100003C00000006000000020000000000000000B866C000000040FFED8340000000000048A0400000000000B866C000000040FFED8340000000000038A0400C00000013000000520100003C000000
310
06000000020000000000000000B866C000000040FFED8340000000000038A0400000000000B8664000000040FFED8340000000000038A0400C000000130000005A0100003C00000006000000020000000000000000B8664000000040FFED8340000000000038A0400000000000B8664000000040FFED8340000000000048A0
310
400C00000013000000620100003C00000006000000020000000000000000B866C000000040FFED8340000000000048A0400000000000B8664000000040FFED8340000000000048A0400C000000130000006A0100003C00000006000000020000000000000000B866C000000080FAEF5D40000000000048A0400000000000B8
310
664000000040FFED8340000000000048A0400C00000013000000720100003C00000006000000020000000000000000B866C000000080FAEF5D40000000000048A0400000000000B866C000000040FFED8340000000000048A0400C000000130000007A0100003C00000006000000020000000000000000B866C000000040FF
310
ED8340000000000048A0400000000000B8664000000040FFED8340000000000048A0400C00000013000000820100003C00000006000000020000000000000000B8664000000040FFED8340000000000048A0400000000000B8664000000080FAEF5D40000000000048A0400C000000130000008A0100003C00000006000000
310
020000000000000000B866C000000080FAEF5D40000000000048A0400000000000B8664000000080FAEF5D40000000000048A0400C00000013000000920100003C000000060000000200000000000000003067C000000040FF078440000000000038A040000000000030674000000040FF07844000000000006CA0400C0000
310
00130000009A0100003C000000060000000200000000000000003067C000000040FF078440000000000038A04000000000003067C000000040FF07844000000000006CA0400C00000013000000A20100003C000000060000000200000000000000003067C000000040FF07844000000000006CA04000000000003067400000
310
0040FF07844000000000006CA0400C00000013000000AA0100003C0000000600000002000000000000000030674000000040FF07844000000000006CA040000000000030674000000040FF078440000000000038A0400C00000013000000B20100003C000000060000000200000000000000003067C000000040FF07844000
310
0000000038A040000000000030674000000040FF078440000000000038A0400C00000013000000BA0100003C000000060000000200000000000000003067C00000002016003EC0000000000038A04000000000003067C000000040FF07844000000000006CA0400C00000013000000C20100003C0000000600000002000000
310
00000000003067C00000002016003EC0000000000038A04000000000003067C00000006016003EC000000000006CA0400C00000013000000CA0100003C000000060000000200000000000000003067C00000006016003EC000000000006CA04000000000003067C000000040FF07844000000000006CA0400C000000130000
310
00D20100003C000000060000000200000000000000003067C000000040FF07844000000000006CA04000000000003067C000000040FF078440000000000038A0400C00000013000000DA0100003C000000060000000200000000000000003067C00000002016003EC0000000000038A04000000000003067C000000040FF07
310
8440000000000038A0400C00000013000000E20100003C000000060000000200000000000000003067400000002016003EC0000000000038A04000000000003067C00000006016003EC000000000006CA0400C00000013000000EA0100003C000000060000000200000000000000003067400000002016003EC00000000000
310
38A04000000000003067400000006016003EC000000000006CA0400C00000013000000F20100003C000000060000000200000000000000003067400000006016003EC000000000006CA04000000000003067C00000006016003EC000000000006CA0400C00000013000000FA0100003C000000060000000200000000000000
310
003067C00000006016003EC000000000006CA04000000000003067C00000002016003EC0000000000038A0400C00000013000000020200003C000000060000000200000000000000003067400000002016003EC0000000000038A04000000000003067C00000002016003EC0000000000038A0400C000000130000000A0200
310
003C0000000600000002000000000000000030674000000040FF078440000000000038A04000000000003067400000006016003EC000000000006CA0400C00000013000000120200003C0000000600000002000000000000000030674000000040FF078440000000000038A040000000000030674000000040FF0784400000
310
0000006CA0400C000000130000001A0200003C0000000600000002000000000000000030674000000040FF07844000000000006CA04000000000003067400000006016003EC000000000006CA0400C00000013000000220200003C000000060000000200000000000000003067400000006016003EC000000000006CA04000
310
000000003067400000002016003EC0000000000038A0400C000000130000002A0200003C0000000600000002000000000000000030674000000040FF078440000000000038A04000000000003067400000002016003EC0000000000038A0400C00000013000000320200003C00000006000000020000000000000000306740
310
0000006016003EC000000000006CA04000000000006063C000000040FDDF634000000000006CA0400C000000130000003A0200003C0000000600000002000000000000000060634000000040FDDF634000000000006CA04000000000003067400000006016003EC000000000006CA0400C00000013000000420200003C0000
310
000600000002000000000000000060634000000040FDDF634000000000006CA04000000000006063C000000040FDDF634000000000006CA0400C000000130000004A0200003C000000060000000200000000000000003067400000006016003EC000000000006CA040000000000060634000000040FF67824000000000006C
310
A0400C00000013000000520200003C000000060000000200000000000000003067400000006016003EC000000000006CA040000000000030674000000040FF07844000000000006CA0400C000000130000005A0200003C0000000600000002000000000000000060634000000040FF67824000000000006CA0400000000000
310
30674000000040FF07844000000000006CA0400C00000013000000620200003C0000000600000002000000000000000060634000000040FDDF634000000000006CA040000000000060634000000040FF67824000000000006CA0400C000000130000006A0200003C0000000600000002000000000000000060634000000040
310
FF67824000000000006CA04000000000003067C000000040FF07844000000000006CA0400C00000013000000720200003C0000000600000002000000000000000030674000000040FF07844000000000006CA04000000000003067C000000040FF07844000000000006CA0400C000000130000007A0200003C000000060000
310
000200000000000000006063C000000040FF67824000000000006CA04000000000003067C000000040FF07844000000000006CA0400C00000013000000820200003C0000000600000002000000000000000060634000000040FF67824000000000006CA04000000000006063C000000040FF67824000000000006CA0400C00
310
0000130000008A0200003C000000060000000200000000000000006063C000000040FF67824000000000006CA04000000000003067C00000006016003EC000000000006CA0400C00000013000000920200003C000000060000000200000000000000003067C000000040FF07844000000000006CA04000000000003067C000
310
00006016003EC000000000006CA0400C000000130000009A0200003C000000060000000200000000000000006063C000000040FDDF634000000000006CA04000000000003067C00000006016003EC000000000006CA0400C00000013000000A20200003C000000060000000200000000000000006063C000000040FF678240
310
00000000006CA04000000000006063C000000040FDDF634000000000006CA0400C00000013000000AA0200003C000000060000000200000000000000003067400000006016003EC000000000006CA04000000000003067C00000006016003EC000000000006CA0400C00000013000000B20200003C00000006000000020000
310
0000000000003067C00000002016003EC0000000000038A0400000000000B8664000000080FAEF5D40000000000038A0400C00000013000000BA0200003C00000006000000020000000000000000B866C000000080FAEF5D40000000000038A04000000000003067C00000002016003EC0000000000038A0400C0000001300
310
0000C20200003C00000006000000020000000000000000B866C000000080FAEF5D40000000000038A0400000000000B8664000000080FAEF5D40000000000038A0400C00000013000000CA0200003C000000060000000200000000000000003067C000000040FF078440000000000038A0400000000000B8664000000040FF
310
ED8340000000000038A0400C00000013000000D20200003C000000060000000200000000000000003067C000000040FF078440000000000038A040000000000030674000000040FF078440000000000038A0400C00000013000000DA0200003C00000006000000020000000000000000B8664000000040FFED834000000000
310
0038A040000000000030674000000040FF078440000000000038A0400C00000013000000E20200003C000000060000000200000000000000003067C000000040FF078440000000000038A0400000000000B866C000000040FFED8340000000000038A0400C00000013000000EA0200003C0000000600000002000000000000
310
0000B8664000000040FFED8340000000000038A0400000000000B866C000000040FFED8340000000000038A0400C00000013000000F20200003C000000060000000200000000000000003067C00000002016003EC0000000000038A0400000000000B866C000000040FFED8340000000000038A0400C00000013000000FA02
310
00003C000000060000000200000000000000003067C000000040FF078440000000000038A04000000000003067C00000002016003EC0000000000038A0400C00000013000000020300003C00000006000000020000000000000000B866C000000080FAEF5D40000000000038A0400000000000B866C000000040FFED834000
310
0000000038A0400C000000130000000A0300003C00000006000000020000000000000000B8664000000040FFED8340000000000038A04000000000003067400000002016003EC0000000000038A0400C00000013000000120300003C0000000600000002000000000000000030674000000040FF078440000000000038A040
310
00000000003067400000002016003EC0000000000038A0400C000000130000001A0300003C00000006000000020000000000000000B8664000000080FAEF5D40000000000038A04000000000003067400000002016003EC0000000000038A0400C00000013000000220300003C00000006000000020000000000000000B866
310
4000000040FFED8340000000000038A0400000000000B8664000000080FAEF5D40000000000038A0400C000000130000002A0300003C000000060000000200000000000000003067C00000002016003EC0000000000038A04000000000003067400000002016003EC0000000000038A040
100
AcDbSubDMesh
 71
     2
 72
     0
 91
        0
 92
       72
 10
-155.0
 20
158.9996643066406
 30
2094.0
 10
-155.0
 20
158.9996643066406
 30
2102.0
 10
155.0
 20
158.9996643066406
 30
2102.0
 10
155.0
 20
158.9996643066406
 30
2094.0
 10
155.0
 20
158.9996643066406
 30
2094.0
 10
155.0
 20
158.9996643066406
 30
2102.0
 10
155.0
 20
588.9996337890624
 30
2102.0
 10
155.0
 20
588.9996337890624
 30
2094.0
 10
155.0
 20
588.9996337890624
 30
2094.0
 10
155.0
 20
588.9996337890624
 30
2102.0
 10
-155.0
 20
588.9996337890624
 30
2102.0
 10
-155.0
 20
588.9996337890624
 30
2094.0
 10
-155.0
 20
588.9996337890624
 30
2094.0
 10
-155.0
 20
588.9996337890624
 30
2102.0
 10
-155.0
 20
158.9996643066406
 30
2102.0
 10
-155.0
 20
158.9996643066406
 30
2094.0
 10
155.0
 20
588.9996337890624
 30
2094.0
 10
-155.0
 20
588.9996337890624
 30
2094.0
 10
-155.0
 20
158.9996643066406
 30
2094.0
 10
155.0
 20
158.9996643066406
 30
2094.0
 10
181.75
 20
637.7496337890625
 30
2084.0
 10
181.75
 20
637.7496337890625
 30
2076.0
 10
181.75
 20
119.7496643066406
 30
2076.0
 10
181.75
 20
119.7496643066406
 30
2084.0
 10
181.75
 20
119.7496643066406
 30
2084.0
 10
181.75
 20
119.7496643066406
 30
2076.0
 10
-181.75
 20
119.7496643066406
 30
2076.0
 10
-181.75
 20
119.7496643066406
 30
2084.0
 10
-181.75
 20
637.7496337890625
 30
2084.0
 10
-181.75
 20
119.7496643066406
 30
2084.0
 10
-181.75
 20
119.7496643066406
 30
2076.0
 10
-181.75
 20
637.7496337890625
 30
2076.0
 10
-181.75
 20
637.7496337890625
 30
2084.0
 10
-181.75
 20
637.7496337890625
 30
2076.0
 10
181.75
 20
637.7496337890625
 30
2076.0
 10
181.75
 20
637.7496337890625
 30
2084.0
 10
-181.75
 20
119.7496643066406
 30
2084.0
 10
-181.75
 20
637.7496337890625
 30
2084.0
 10
181.75
 20
637.7496337890625
 30
2084.0
 10
181.75
 20
119.7496643066406
 30
2084.0
 10
-185.5
 20
640.9996337890625
 30
2076.0
 10
-185.5
 20
640.9996337890625
 30
2102.0
 10
185.5
 20
640.9996337890625
 30
2102.0
 10
185.5
 20
640.9996337890625
 30
2076.0
 10
-185.5
 20
-30.00033760070801
 30
2076.0
 10
-185.5
 20
-30.00034141540528
 30
2102.0
 10
-185.5
 20
640.9996337890625
 30
2102.0
 10
-185.5
 20
640.9996337890625
 30
2076.0
 10
185.5
 20
-30.00033760070801
 30
2076.0
 10
185.5
 20
-30.00034141540528
 30
2102.0
 10
-185.5
 20
-30.00034141540528
 30
2102.0
 10
-185.5
 20
-30.00033760070801
 30
2076.0
 10
185.5
 20
640.9996337890625
 30
2076.0
 10
185.5
 20
640.9996337890625
 30
2102.0
 10
185.5
 20
-30.00034141540528
 30
2102.0
 10
185.5
 20
-30.00033760070801
 30
2076.0
 10
155.0
 20
158.9996643066406
 30
2102.0
 10
185.5
 20
-30.00034141540528
 30
2102.0
 10
155.0
 20
588.9996337890624
 30
2102.0
 10
185.5
 20
640.9996337890625
 30
2102.0
 10
-155.0
 20
588.9996337890624
 30
2102.0
 10
-185.5
 20
640.9996337890625
 30
2102.0
 10
-155.0
 20
158.9996643066406
 30
2102.0
 10
-185.5
 20
-30.00034141540528
 30
2102.0
 10
-181.75
 20
119.7496643066406
 30
2076.0
 10
-185.5
 20
640.9996337890625
 30
2076.0
 10
181.75
 20
637.7496337890625
 30
2076.0
 10
-185.5
 20
-30.00033760070801
 30
2076.0
 10
-181.75
 20
637.7496337890625
 30
2076.0
 10
185.5
 20
640.9996337890625
 30
2076.0
 10
181.75
 20
119.7496643066406
 30
2076.0
 10
185.5
 20
-30.00033760070801
 30
2076.0
 93
      176
 90
        3
 90
        2
 90
        0
 90
        1
 90
        3
 90
        0
 90
        2
 90
        3
 90
        3
 90
        6
 90
        4
 90
        5
 90
        3
 90
        4
 90
        6
 90
        7
 90
        3
 90
       10
 90
        8
 90
        9
 90
        3
 90
        8
 90
       10
 90
       11
 90
        3
 90
       14
 90
       12
 90
       13
 90
        3
 90
       12
 90
       14
 90
       15
 90
        3
 90
       18
 90
       16
 90
       17
 90
        3
 90
       16
 90
       18
 90
       19
 90
        3
 90
       22
 90
       20
 90
       21
 90
        3
 90
       20
 90
       22
 90
       23
 90
        3
 90
       26
 90
       24
 90
       25
 90
        3
 90
       24
 90
       26
 90
       27
 90
        3
 90
       30
 90
       28
 90
       29
 90
        3
 90
       28
 90
       30
 90
       31
 90
        3
 90
       34
 90
       32
 90
       33
 90
        3
 90
       32
 90
       34
 90
       35
 90
        3
 90
       38
 90
       36
 90
       37
 90
        3
 90
       36
 90
       38
 90
       39
 90
        3
 90
       42
 90
       40
 90
       41
 90
        3
 90
       40
 90
       42
 90
       43
 90
        3
 90
       46
 90
       44
 90
       45
 90
        3
 90
       44
 90
       46
 90
       47
 90
        3
 90
       50
 90
       48
 90
       49
 90
        3
 90
       48
 90
       50
 90
       51
 90
        3
 90
       54
 90
       52
 90
       53
 90
        3
 90
       52
 90
       54
 90
       55
 90
        3
 90
       62
 90
       57
 90
       56
 90
        3
 90
       58
 90
       57
 90
       59
 90
        3
 90
       56
 90
       57
 90
       58
 90
        3
 90
       61
 90
       58
 90
       59
 90
        3
 90
       61
 90
       60
 90
       58
 90
        3
 90
       63
 90
       60
 90
       61
 90
        3
 90
       63
 90
       62
 90
       60
 90
        3
 90
       57
 90
       62
 90
       63
 90
        3
 90
       70
 90
       67
 90
       64
 90
        3
 90
       66
 90
       65
 90
       69
 90
        3
 90
       68
 90
       65
 90
       66
 90
        3
 90
       68
 90
       67
 90
       65
 90
        3
 90
       64
 90
       67
 90
       68
 90
        3
 90
       71
 90
       66
 90
       69
 90
        3
 90
       71
 90
       70
 90
       66
 90
        3
 90
       67
 90
       70
 90
       71
 94
      102
 90
        0
 90
        2
 90
        0
 90
        1
 90
        1
 90
        2
 90
        2
 90
        3
 90
        0
 90
        3
 90
        4
 90
        6
 90
        4
 90
        5
 90
        5
 90
        6
 90
        6
 90
        7
 90
        4
 90
        7
 90
        8
 90
       10
 90
        8
 90
        9
 90
        9
 90
       10
 90
       10
 90
       11
 90
        8
 90
       11
 90
       12
 90
       14
 90
       12
 90
       13
 90
       13
 90
       14
 90
       14
 90
       15
 90
       12
 90
       15
 90
       16
 90
       18
 90
       16
 90
       17
 90
       17
 90
       18
 90
       18
 90
       19
 90
       16
 90
       19
 90
       20
 90
       22
 90
       20
 90
       21
 90
       21
 90
       22
 90
       22
 90
       23
 90
       20
 90
       23
 90
       24
 90
       26
 90
       24
 90
       25
 90
       25
 90
       26
 90
       26
 90
       27
 90
       24
 90
       27
 90
       28
 90
       30
 90
       28
 90
       29
 90
       29
 90
       30
 90
       30
 90
       31
 90
       28
 90
       31
 90
       32
 90
       34
 90
       32
 90
       33
 90
       33
 90
       34
 90
       34
 90
       35
 90
       32
 90
       35
 90
       36
 90
       38
 90
       36
 90
       37
 90
       37
 90
       38
 90
       38
 90
       39
 90
       36
 90
       39
 90
       40
 90
       42
 90
       40
 90
       41
 90
       41
 90
       42
 90
       42
 90
       43
 90
       40
 90
       43
 90
       44
 90
       46
 90
       44
 90
       45
 90
       45
 90
       46
 90
       46
 90
       47
 90
       44
 90
       47
 90
       48
 90
       50
 90
       48
 90
       49
 90
       49
 90
       50
 90
       50
 90
       51
 90
       48
 90
       51
 90
       52
 90
       54
 90
       52
 90
       53
 90
       53
 90
       54
 90
       54
 90
       55
 90
       52
 90
       55
 90
       57
 90
       62
 90
       56
 90
       57
 90
       56
 90
       62
 90
       57
 90
       58
 90
       57
 90
       59
 90
       58
 90
       59
 90
       56
 90
       58
 90
       58
 90
       61
 90
       59
 90
       61
 90
       60
 90
       61
 90
       58
 90
       60
 90
       60
 90
       63
 90
       61
 90
       63
 90
       62
 90
       63
 90
       60
 90
       62
 90
       57
 90
       63
 90
       67
 90
       70
 90
       64
 90
       67
 90
       64
 90
       70
 90
       65
 90
       66
 90
       65
 90
       69
 90
       66
 90
       69
 90
       65
 90
       68
 90
       66
 90
       68
 90
       67
 90
       68
 90
       65
 90
       67
 90
       64
 90
       68
 90
       66
 90
       71
 90
       69
 90
       71
 90
       70
 90
       71
 90
       66
 90
       70
 90
       67
 90
       71
 95
      102
140
0.0
140
0.0
140
0.0
140
0.0
140
0.0
140
0.0
140
0.0
140
0.0
140
0.0
140
0.0
140
0.0
140
0.0
140
0.0
140
0.0
140
0.0
140
0.0
140
0.0
140
0.0
140
0.0
140
0.0
140
0.0
140
0.0
140
0.0
140
0.0
140
0.0
140
0.0
140
0.0
140
0.0
140
0.0
140
0.0
140
0.0
140
0.0
140
0.0
140
0.0
140
0.0
140
0.0
140
0.0
140
0.0
140
0.0
140
0.0
140
0.0
140
0.0
140
0.0
140
0.0
140
0.0
140
0.0
140
0.0
140
0.0
140
0.0
140
0.0
140
0.0
140
0.0
140
0.0
140
0.0
140
0.0
140
0.0
140
0.0
140
0.0
140
0.0
140
0.0
140
0.0
140
0.0
140
0.0
140
0.0
140
0.0
140
0.0
140
0.0
140
0.0
140
0.0
140
0.0
140
0.0
140
0.0
140
0.0
140
0.0
140
0.0
140
0.0
140
0.0
140
0.0
140
0.0
140
0.0
140
0.0
140
0.0
140
0.0
140
0.0
140
0.0
140
0.0
140
0.0
140
0.0
140
0.0
140
0.0
140
0.0
140
0.0
140
0.0
140
0.0
140
0.0
140
0.0
140
0.0
140
0.0
140
0.0
140
0.0
140
0.0
140
0.0
 90
        0
  0
MESH
  5
FB
102
{ACAD_REACTORS
330
FE
330
FD
102
}
330
1F
100
AcDbEntity
  8
0
 62
     9
420
 12566463
160
              2168
310
780800003C0000000C00000013000000020000003C0000000600000002000000000000000040634000000040FF5F824000000000005EA04000000000004063C000000040FF5F824000000000006CA0400C000000130000000A0000003C0000000600000002000000000000000040634000000040FF5F824000000000005EA0
310
4000000000004063C000000040FF5F824000000000005EA0400C00000013000000120000003C000000060000000200000000000000004063C000000040FF5F824000000000005EA04000000000004063C000000040FF5F824000000000006CA0400C000000130000001A0000003C0000000600000002000000000000000040
310
63C000000040FF5F824000000000006CA040000000000040634000000040FF5F824000000000006CA0400C00000013000000220000003C0000000600000002000000000000000040634000000040FF5F824000000000005EA040000000000040634000000040FF5F824000000000006CA0400C000000130000002A0000003C
310
000000060000000200000000000000004063C000000040FDFF634000000000005EA04000000000004063C000000040FF5F824000000000006CA0400C00000013000000320000003C000000060000000200000000000000004063C000000040FDFF634000000000005EA04000000000004063C000000040FDFF634000000000
310
006CA0400C000000130000003A0000003C000000060000000200000000000000004063C000000040FDFF634000000000006CA04000000000004063C000000040FF5F824000000000006CA0400C00000013000000420000003C000000060000000200000000000000004063C000000040FF5F824000000000006CA040000000
310
00004063C000000040FF5F824000000000005EA0400C000000130000004A0000003C000000060000000200000000000000004063C000000040FDFF634000000000005EA04000000000004063C000000040FF5F824000000000005EA0400C00000013000000520000003C000000060000000200000000000000004063400000
310
0040FDFF634000000000005EA04000000000004063C000000040FDFF634000000000006CA0400C000000130000005A0000003C0000000600000002000000000000000040634000000040FDFF634000000000005EA040000000000040634000000040FDFF634000000000006CA0400C00000013000000620000003C00000006
310
00000002000000000000000040634000000040FDFF634000000000006CA04000000000004063C000000040FDFF634000000000006CA0400C000000130000006A0000003C000000060000000200000000000000004063C000000040FDFF634000000000006CA04000000000004063C000000040FDFF634000000000005EA040
310
0C00000013000000720000003C0000000600000002000000000000000040634000000040FDFF634000000000005EA04000000000004063C000000040FDFF634000000000005EA0400C000000130000007A0000003C0000000600000002000000000000000040634000000040FF5F824000000000005EA04000000000004063
310
4000000040FDFF634000000000006CA0400C00000013000000820000003C0000000600000002000000000000000040634000000040FF5F824000000000005EA040000000000040634000000040FF5F824000000000006CA0400C000000130000008A0000003C0000000600000002000000000000000040634000000040FF5F
310
824000000000006CA040000000000040634000000040FDFF634000000000006CA0400C00000013000000920000003C0000000600000002000000000000000040634000000040FDFF634000000000006CA040000000000040634000000040FDFF634000000000005EA0400C000000130000009A0000003C0000000600000002
310
000000000000000040634000000040FF5F824000000000005EA040000000000040634000000040FDFF634000000000005EA0400C00000013000000A20000003C000000060000000200000000000000004063C000000040FDFF634000000000006CA040000000000040634000000040FF5F824000000000006CA0400C000000
310
13000000AA0000003C000000060000000200000000000000004063C000000040FDFF634000000000006CA040000000000040634000000040FDFF634000000000006CA0400C00000013000000B20000003C0000000600000002000000000000000040634000000040FDFF634000000000006CA0400000000000406340000000
310
40FF5F824000000000006CA0400C00000013000000BA0000003C0000000600000002000000000000000040634000000040FF5F824000000000006CA04000000000004063C000000040FF5F824000000000006CA0400C00000013000000C20000003C000000060000000200000000000000004063C000000040FDFF63400000
310
0000006CA04000000000004063C000000040FF5F824000000000006CA0400C00000013000000CA0000003C000000060000000200000000000000004063C000000040FDFF634000000000005EA040000000000040634000000040FF5F824000000000005EA0400C00000013000000D20000003C000000060000000200000000
310
000000004063C000000040FDFF634000000000005EA04000000000004063C000000040FF5F824000000000005EA0400C00000013000000DA0000003C000000060000000200000000000000004063C000000040FF5F824000000000005EA040000000000040634000000040FF5F824000000000005EA0400C00000013000000
310
E20000003C0000000600000002000000000000000040634000000040FF5F824000000000005EA040000000000040634000000040FDFF634000000000005EA0400C00000013000000EA0000003C000000060000000200000000000000004063C000000040FDFF634000000000005EA040000000000040634000000040FDFF63
310
4000000000005EA040
100
AcDbSubDMesh
 71
     2
 72
     0
 91
        0
 92
       24
 10
154.0
 20
587.9996337890625
 30
2095.0
 10
-154.0
 20
587.9996337890625
 30
2095.0
 10
-154.0
 20
587.9996337890625
 30
2102.0
 10
154.0
 20
587.9996337890625
 30
2102.0
 10
-154.0
 20
159.9996643066406
 30
2095.0
 10
-154.0
 20
159.9996643066406
 30
2102.0
 10
-154.0
 20
587.9996337890625
 30
2102.0
 10
-154.0
 20
587.9996337890625
 30
2095.0
 10
154.0
 20
159.9996643066406
 30
2095.0
 10
154.0
 20
159.9996643066406
 30
2102.0
 10
-154.0
 20
159.9996643066406
 30
2102.0
 10
-154.0
 20
159.9996643066406
 30
2095.0
 10
154.0
 20
587.9996337890625
 30
2095.0
 10
154.0
 20
587.9996337890625
 30
2102.0
 10
154.0
 20
159.9996643066406
 30
2102.0
 10
154.0
 20
159.9996643066406
 30
2095.0
 10
-154.0
 20
159.9996643066406
 30
2102.0
 10
154.0
 20
159.9996643066406
 30
2102.0
 10
154.0
 20
587.9996337890625
 30
2102.0
 10
-154.0
 20
587.9996337890625
 30
2102.0
 10
-154.0
 20
159.9996643066406
 30
2095.0
 10
-154.0
 20
587.9996337890625
 30
2095.0
 10
154.0
 20
587.9996337890625
 30
2095.0
 10
154.0
 20
159.9996643066406
 30
2095.0
 93
       48
 90
        3
 90
        2
 90
        0
 90
        1
 90
        3
 90
        0
 90
        2
 90
        3
 90
        3
 90
        6
 90
        4
 90
        5
 90
        3
 90
        4
 90
        6
 90
        7
 90
        3
 90
       10
 90
        8
 90
        9
 90
        3
 90
        8
 90
       10
 90
       11
 90
        3
 90
       14
 90
       12
 90
       13
 90
        3
 90
       12
 90
       14
 90
       15
 90
        3
 90
       18
 90
       16
 90
       17
 90
        3
 90
       16
 90
       18
 90
       19
 90
        3
 90
       22
 90
       20
 90
       21
 90
        3
 90
       20
 90
       22
 90
       23
 94
       30
 90
        0
 90
        2
 90
        0
 90
        1
 90
        1
 90
        2
 90
        2
 90
        3
 90
        0
 90
        3
 90
        4
 90
        6
 90
        4
 90
        5
 90
        5
 90
        6
 90
        6
 90
        7
 90
        4
 90
        7
 90
        8
 90
       10
 90
        8
 90
        9
 90
        9
 90
       10
 90
       10
 90
       11
 90
        8
 90
       11
 90
       12
 90
       14
 90
       12
 90
       13
 90
       13
 90
       14
 90
       14
 90
       15
 90
       12
 90
       15
 90
       16
 90
       18
 90
       16
 90
       17
 90
       17
 90
       18
 90
       18
 90
       19
 90
       16
 90
       19
 90
       20
 90
       22
 90
       20
 90
       21
 90
       21
 90
       22
 90
       22
 90
       23
 90
       20
 90
       23
 95
       30
140
0.0
140
0.0
140
0.0
140
0.0
140
0.0
140
0.0
140
0.0
140
0.0
140
0.0
140
0.0
140
0.0
140
0.0
140
0.0
140
0.0
140
0.0
140
0.0
140
0.0
140
0.0
140
0.0
140
0.0
140
0.0
140
0.0
140
0.0
140
0.0
140
0.0
140
0.0
140
0.0
140
0.0
140
0.0
140
0.0
 90
        0
  0
MESH
  5
FC
102
{ACAD_REACTORS
330
FE
330
FD
102
}
330
1F
100
AcDbEntity
  8
0
 62
     9
420
 12566463
160
              2168
310
780800003C0000000C00000013000000020000003C0000000600000002000000000000000098664000000040FFE58340000000000046A04000000000009866C000000040FFE58340000000000038A0400C000000130000000A0000003C0000000600000002000000000000000098664000000040FFE58340000000000046A0
310
40000000000098664000000040FFE58340000000000038A0400C00000013000000120000003C0000000600000002000000000000000098664000000040FFE58340000000000038A04000000000009866C000000040FFE58340000000000038A0400C000000130000001A0000003C0000000600000002000000000000000098
310
66C000000040FFE58340000000000038A04000000000009866C000000040FFE58340000000000046A0400C00000013000000220000003C0000000600000002000000000000000098664000000040FFE58340000000000046A04000000000009866C000000040FFE58340000000000046A0400C000000130000002A0000003C
310
0000000600000002000000000000000098664000000080FA2F5E40000000000046A040000000000098664000000040FFE58340000000000038A0400C00000013000000320000003C0000000600000002000000000000000098664000000080FA2F5E40000000000046A040000000000098664000000080FA2F5E4000000000
310
0038A0400C000000130000003A0000003C0000000600000002000000000000000098664000000080FA2F5E40000000000038A040000000000098664000000040FFE58340000000000038A0400C00000013000000420000003C0000000600000002000000000000000098664000000040FFE58340000000000038A040000000
310
000098664000000040FFE58340000000000046A0400C000000130000004A0000003C0000000600000002000000000000000098664000000080FA2F5E40000000000046A040000000000098664000000040FFE58340000000000046A0400C00000013000000520000003C000000060000000200000000000000009866C00000
310
0080FA2F5E40000000000046A040000000000098664000000080FA2F5E40000000000038A0400C000000130000005A0000003C000000060000000200000000000000009866C000000080FA2F5E40000000000046A04000000000009866C000000080FA2F5E40000000000038A0400C00000013000000620000003C00000006
310
0000000200000000000000009866C000000080FA2F5E40000000000038A040000000000098664000000080FA2F5E40000000000038A0400C000000130000006A0000003C0000000600000002000000000000000098664000000080FA2F5E40000000000038A040000000000098664000000080FA2F5E40000000000046A040
310
0C00000013000000720000003C000000060000000200000000000000009866C000000080FA2F5E40000000000046A040000000000098664000000080FA2F5E40000000000046A0400C000000130000007A0000003C000000060000000200000000000000009866C000000040FFE58340000000000046A04000000000009866
310
C000000080FA2F5E40000000000038A0400C00000013000000820000003C000000060000000200000000000000009866C000000040FFE58340000000000046A04000000000009866C000000040FFE58340000000000038A0400C000000130000008A0000003C000000060000000200000000000000009866C000000040FFE5
310
8340000000000038A04000000000009866C000000080FA2F5E40000000000038A0400C00000013000000920000003C000000060000000200000000000000009866C000000080FA2F5E40000000000038A04000000000009866C000000080FA2F5E40000000000046A0400C000000130000009A0000003C0000000600000002
310
00000000000000009866C000000040FFE58340000000000046A04000000000009866C000000080FA2F5E40000000000046A0400C00000013000000A20000003C0000000600000002000000000000000098664000000080FA2F5E40000000000038A04000000000009866C000000040FFE58340000000000038A0400C000000
310
13000000AA0000003C0000000600000002000000000000000098664000000080FA2F5E40000000000038A04000000000009866C000000080FA2F5E40000000000038A0400C00000013000000B20000003C000000060000000200000000000000009866C000000080FA2F5E40000000000038A04000000000009866C0000000
310
40FFE58340000000000038A0400C00000013000000BA0000003C000000060000000200000000000000009866C000000040FFE58340000000000038A040000000000098664000000040FFE58340000000000038A0400C00000013000000C20000003C0000000600000002000000000000000098664000000080FA2F5E400000
310
00000038A040000000000098664000000040FFE58340000000000038A0400C00000013000000CA0000003C0000000600000002000000000000000098664000000080FA2F5E40000000000046A04000000000009866C000000040FFE58340000000000046A0400C00000013000000D20000003C000000060000000200000000
310
0000000098664000000080FA2F5E40000000000046A040000000000098664000000040FFE58340000000000046A0400C00000013000000DA0000003C0000000600000002000000000000000098664000000040FFE58340000000000046A04000000000009866C000000040FFE58340000000000046A0400C00000013000000
310
E20000003C000000060000000200000000000000009866C000000040FFE58340000000000046A04000000000009866C000000080FA2F5E40000000000046A0400C00000013000000EA0000003C0000000600000002000000000000000098664000000080FA2F5E40000000000046A04000000000009866C000000080FA2F5E
310
40000000000046A040
100
AcDbSubDMesh
 71
     2
 72
     0
 91
        0
 92
       24
 10
180.75
 20
636.7496337890624
 30
2083.0
 10
180.75
 20
636.7496337890624
 30
2076.0
 10
-180.75
 20
636.7496337890624
 30
2076.0
 10
-180.75
 20
636.7496337890624
 30
2083.0
 10
180.75
 20
120.7496643066406
 30
2083.0
 10
180.75
 20
120.7496643066406
 30
2076.0
 10
180.75
 20
636.7496337890624
 30
2076.0
 10
180.75
 20
636.7496337890624
 30
2083.0
 10
-180.75
 20
120.7496643066406
 30
2083.0
 10
-180.75
 20
120.7496643066406
 30
2076.0
 10
180.75
 20
120.7496643066406
 30
2076.0
 10
180.75
 20
120.7496643066406
 30
2083.0
 10
-180.75
 20
636.7496337890624
 30
2083.0
 10
-180.75
 20
636.7496337890624
 30
2076.0
 10
-180.75
 20
120.7496643066406
 30
2076.0
 10
-180.75
 20
120.7496643066406
 30
2083.0
 10
180.75
 20
120.7496643066406
 30
2076.0
 10
-180.75
 20
120.7496643066406
 30
2076.0
 10
-180.75
 20
636.7496337890624
 30
2076.0
 10
180.75
 20
636.7496337890624
 30
2076.0
 10
180.75
 20
120.7496643066406
 30
2083.0
 10
180.75
 20
636.7496337890624
 30
2083.0
 10
-180.75
 20
636.7496337890624
 30
2083.0
 10
-180.75
 20
120.7496643066406
 30
2083.0
 93
       48
 90
        3
 90
        2
 90
        0
 90
        1
 90
        3
 90
        0
 90
        2
 90
        3
 90
        3
 90
        6
 90
        4
 90
        5
 90
        3
 90
        4
 90
        6
 90
        7
 90
        3
 90
       10
 90
        8
 90
        9
 90
        3
 90
        8
 90
       10
 90
       11
 90
        3
 90
       14
 90
       12
 90
       13
 90
        3
 90
       12
 90
       14
 90
       15
 90
        3
 90
       18
 90
       16
 90
       17
 90
        3
 90
       16
 90
       18
 90
       19
 90
        3
 90
       22
 90
       20
 90
       21
 90
        3
 90
       20
 90
       22
 90
       23
 94
       30
 90
        0
 90
        2
 90
        0
 90
        1
 90
        1
 90
        2
 90
        2
 90
        3
 90
        0
 90
        3
 90
        4
 90
        6
 90
        4
 90
        5
 90
        5
 90
        6
 90
        6
 90
        7
 90
        4
 90
        7
 90
        8
 90
       10
 90
        8
 90
        9
 90
        9
 90
       10
 90
       10
 90
       11
 90
        8
 90
       11
 90
       12
 90
       14
 90
       12
 90
       13
 90
       13
 90
       14
 90
       14
 90
       15
 90
       12
 90
       15
 90
       16
 90
       18
 90
       16
 90
       17
 90
       17
 90
       18
 90
       18
 90
       19
 90
       16
 90
       19
 90
       20
 90
       22
 90
       20
 90
       21
 90
       21
 90
       22
 90
       22
 90
       23
 90
       20
 90
       23
 95
       30
140
0.0
140
0.0
140
0.0
140
0.0
140
0.0
140
0.0
140
0.0
140
0.0
140
0.0
140
0.0
140
0.0
140
0.0
140
0.0
140
0.0
140
0.0
140
0.0
140
0.0
140
0.0
140
0.0
140
0.0
140
0.0
140
0.0
140
0.0
140
0.0
140
0.0
140
0.0
140
0.0
140
0.0
140
0.0
140
0.0
 90
        0
  0
ENDSEC
  0
SECTION
  2
OBJECTS
  0
DICTIONARY
  5
C
330
0
100
AcDbDictionary
281
     1
  3
ACAD_COLOR
350
DC
  3
ACAD_DETAILVIEWSTYLE
350
F5
  3
ACAD_GROUP
350
D
  3
ACAD_LAYOUT
350
1A
  3
ACAD_MATERIAL
350
AA
  3
ACAD_MLEADERSTYLE
350
F1
  3
ACAD_MLINESTYLE
350
17
  3
ACAD_PLOTSETTINGS
350
19
  3
ACAD_PLOTSTYLENAME
350
E
  3
ACAD_SCALELIST
350
DF
  3
ACAD_SECTIONVIEWSTYLE
350
F3
  3
ACAD_TABLESTYLE
350
DD
  3
ACAD_VISUALSTYLE
350
C3
  3
ACDB_RECOMPOSE_DATA
350
10B
  3
AcDbVariableDictionary
350
FF
  0
DICTIONARY
  5
DC
102
{ACAD_REACTORS
330
C
102
}
330
C
100
AcDbDictionary
281
     1
  0
DICTIONARY
  5
F5
102
{ACAD_REACTORS
330
C
102
}
330
C
100
AcDbDictionary
281
     1
  3
Imperial24
350
F6
  0
DICTIONARY
  5
D
102
{ACAD_REACTORS
330
C
102
}
330
C
100
AcDbDictionary
281
     1
  3
Silica21_floor
350
FD
  3
Silica21_Stehleuchte_measured_1
350
FE
  0
DICTIONARY
  5
1A
102
{ACAD_REACTORS
330
C
102
}
330
C
100
AcDbDictionary
281
     1
  3
Layout1
350
1E
  3
Layout2
350
26
  3
Model
350
22
  0
DICTIONARY
  5
AA
102
{ACAD_REACTORS
330
C
102
}
330
C
100
AcDbDictionary
281
     1
  3
ByBlock
350
B3
  3
ByLayer
350
AB
  3
Global
350
BB
  0
DICTIONARY
  5
F1
102
{ACAD_REACTORS
330
C
102
}
330
C
100
AcDbDictionary
281
     1
  3
Standard
350
F2
  0
DICTIONARY
  5
17
102
{ACAD_REACTORS
330
C
102
}
330
C
100
AcDbDictionary
281
     1
  3
Standard
350
18
  0
DICTIONARY
  5
19
102
{ACAD_REACTORS
330
C
102
}
330
C
100
AcDbDictionary
281
     1
  0
ACDBDICTIONARYWDFLT
  5
E
102
{ACAD_REACTORS
330
C
102
}
330
C
100
AcDbDictionary
281
     1
  3
ByLayer
350
2D
  3
Normal
350
F
100
AcDbDictionaryWithDefault
340
F
  0
DICTIONARY
  5
DF
102
{ACAD_REACTORS
330
C
102
}
330
C
100
AcDbDictionary
281
     1
  3
A0
350
E0
  3
A1
350
E1
  3
A2
350
E2
  3
A3
350
E3
  3
A4
350
E4
  3
A5
350
E5
  3
A6
350
E6
  3
A7
350
E7
  3
A8
350
E8
  3
A9
350
E9
  3
B0
350
EA
  3
B1
350
EB
  3
B2
350
EC
  3
B3
350
ED
  3
B4
350
EE
  3
B5
350
EF
  3
B6
350
F0
  0
DICTIONARY
  5
F3
102
{ACAD_REACTORS
330
C
102
}
330
C
100
AcDbDictionary
281
     1
  3
Imperial24
350
F4
  0
DICTIONARY
  5
DD
102
{ACAD_REACTORS
330
C
102
}
330
C
100
AcDbDictionary
281
     1
  3
Standard
350
DE
  0
DICTIONARY
  5
C3
102
{ACAD_REACTORS
330
C
102
}
330
C
100
AcDbDictionary
281
     1
  3
2dWireframe
350
C9
  3
Basic
350
C8
  3
Brighten
350
CF
  3
ColorChange
350
D3
  3
Conceptual
350
CC
  3
Dim
350
CE
  3
EdgeColorOff
350
DB
  3
Facepattern
350
D2
  3
Flat
350
C4
  3
FlatWithEdges
350
C5
  3
Gouraud
350
C6
  3
GouraudWithEdges
350
C7
  3
Hidden
350
CB
  3
JitterOff
350
D9
  3
Linepattern
350
D1
  3
OverhangOff
350
DA
  3
Realistic
350
CD
  3
Shaded
350
D8
  3
Shaded with edges
350
D7
  3
Shades of Gray
350
D4
  3
Sketchy
350
D5
  3
Thicken
350
D0
  3
Wireframe
350
CA
  3
X-Ray
350
D6
  0
XRECORD
  5
10B
102
{ACAD_REACTORS
330
C
102
}
330
C
100
AcDbXrecord
280
     1
 90
        1
330
DE
  0
DICTIONARY
  5
FF
102
{ACAD_REACTORS
330
C
102
}
330
C
100
AcDbDictionary
281
     1
  3
CANNOSCALE
350
105
  3
CMLEADERSTYLE
350
101
  3
CTABLESTYLE
350
100
  3
CVIEWDETAILSTYLE
350
102
  3
CVIEWSECTIONSTYLE
350
103
  3
LAYEREVAL
350
107
  3
LAYERNOTIFY
350
108
  3
LIGHTINGUNITS
350
106
  3
MSLTSCALE
350
104
  0
ACDBDETAILVIEWSTYLE
  5
F6
102
{ACAD_XDICTIONARY
360
140
102
}
102
{ACAD_REACTORS
330
F5
102
}
330
F5
100
AcDbModelDocViewStyle
 70
     0
  3
Imperial24
290
     0
100
AcDbDetailViewStyle
 70
     0
 71
     0
 90
        3
 71
     1
340
11
 62
   256
 40
0.24
340
0
 62
   256
 40
0.24
300

 40
0.36
280
     3
 71
     2
340
16
 90
       25
 62
   256
 71
     3
340
11
 62
   256
 40
0.24
 90
        1
 40
0.75
 90
        1
300
%<\AcVar ViewType \f "%tc1">% %<\AcVar ViewDetailId>%\PSCALE %<\AcVar ViewScale \f "%sn">%
 71
     4
340
16
 90
       25
 62
   256
340
16
 90
       25
 62
   256
280
     0
  0
GROUP
  5
FD
102
{ACAD_REACTORS
330
D
102
}
330
D
100
AcDbGroup
300
Silica21_floor
 70
     0
 71
     1
340
F9
340
FA
340
FB
340
FC
  0
GROUP
  5
FE
102
{ACAD_REACTORS
330
D
102
}
330
D
100
AcDbGroup
300
Silica21_Stehleuchte_measured_1
 70
     0
 71
     1
340
FA
340
FB
340
FC
  0
LAYOUT
  5
1E
102
{ACAD_REACTORS
330
1A
102
}
330
1A
100
AcDbPlotSettings
  1

  2
\\KTXNTBDC\CASF2PN1
  4

  6

 40
0.0
 41
0.0
 42
0.0
 43
0.0
 44
0.0
 45
0.0
 46
0.0
 47
0.0
 48
0.0
 49
0.0
140
0.0
141
0.0
142
1.0
143
1.0
 70
   688
 72
     0
 73
     0
 74
     5
  7

 75
    16
147
1.0
 76
     0
 77
     2
 78
   300
148
0.0
149
0.0
100
AcDbLayout
  1
Layout1
 70
     1
 71
     1
 10
0.0
 20
0.0
 11
12.0
 21
9.0
 12
0.0
 22
0.0
 32
0.0
 14
1.000000000000000E+20
 24
1.000000000000000E+20
 34
1.000000000000000E+20
 15
-1.000000000000000E+20
 25
-1.000000000000000E+20
 35
-1.000000000000000E+20
146
0.0
 13
0.0
 23
0.0
 33
0.0
 16
1.0
 26
0.0
 36
0.0
 17
0.0
 27
1.0
 37
0.0
 76
     0
330
1B
  0
LAYOUT
  5
26
102
{ACAD_REACTORS
330
1A
102
}
330
1A
100
AcDbPlotSettings
  1

  2
\\KTXNTBDC\CASF2PN1
  4

  6

 40
0.0
 41
0.0
 42
0.0
 43
0.0
 44
0.0
 45
0.0
 46
0.0
 47
0.0
 48
0.0
 49
0.0
140
0.0
141
0.0
142
1.0
143
1.0
 70
   688
 72
     0
 73
     0
 74
     5
  7

 75
    16
147
1.0
 76
     0
 77
     2
 78
   300
148
0.0
149
0.0
100
AcDbLayout
  1
Layout2
 70
     1
 71
     2
 10
0.0
 20
0.0
 11
12.0
 21
9.0
 12
0.0
 22
0.0
 32
0.0
 14
0.0
 24
0.0
 34
0.0
 15
0.0
 25
0.0
 35
0.0
146
0.0
 13
0.0
 23
0.0
 33
0.0
 16
1.0
 26
0.0
 36
0.0
 17
0.0
 27
1.0
 37
0.0
 76
     0
330
23
  0
LAYOUT
  5
22
102
{ACAD_REACTORS
330
1A
102
}
330
1A
100
AcDbPlotSettings
  1

  2
\\KTXNTBDC\CASF2PN1
  4

  6

 40
0.0
 41
0.0
 42
0.0
 43
0.0
 44
0.0
 45
0.0
 46
0.0
 47
0.0
 48
0.0
 49
0.0
140
0.0
141
0.0
142
1.0
143
1.0
 70
  1712
 72
     0
 73
     0
 74
     0
  7

 75
     0
147
1.0
 76
     0
 77
     2
 78
   300
148
0.0
149
0.0
100
AcDbLayout
  1
Model
 70
     1
 71
     0
 10
0.0
 20
0.0
 11
12.0
 21
9.0
 12
0.0
 22
0.0
 32
0.0
 14
0.0
 24
0.0
 34
0.0
 15
0.0
 25
0.0
 35
0.0
146
0.0
 13
0.0
 23
0.0
 33
0.0
 16
1.0
 26
0.0
 36
0.0
 17
0.0
 27
1.0
 37
0.0
 76
     0
330
1F
  0
MATERIAL
  5
B3
102
{ACAD_XDICTIONARY
360
B4
102
}
102
{ACAD_REACTORS
330
AA
102
}
330
AA
100
AcDbMaterial
  1
ByBlock
 72
     0
 43
0.0208333333333333
 43
0.0
 43
0.0
 43
0.0
 43
0.0
 43
0.0208333333333333
 43
0.0
 43
0.0
 43
0.0
 43
0.0
 43
1.0
 43
0.0
 43
0.0
 43
0.0
 43
0.0
 43
1.0
 77
     0
 47
0.0208333333333333
 47
0.0
 47
0.0
 47
0.0
 47
0.0
 47
0.0208333333333333
 47
0.0
 47
0.0
 47
0.0
 47
0.0
 47
1.0
 47
0.0
 47
0.0
 47
0.0
 47
0.0
 47
1.0
171
     0
 49
0.0208333333333333
 49
0.0
 49
0.0
 49
0.0
 49
0.0
 49
0.0208333333333333
 49
0.0
 49
0.0
 49
0.0
 49
0.0
 49
1.0
 49
0.0
 49
0.0
 49
0.0
 49
0.0
 49
1.0
175
     0
142
0.0208333333333333
142
0.0
142
0.0
142
0.0
142
0.0
142
0.0208333333333333
142
0.0
142
0.0
142
0.0
142
0.0
142
1.0
142
0.0
142
0.0
142
0.0
142
0.0
142
1.0
179
     0
144
0.0208333333333333
144
0.0
144
0.0
144
0.0
144
0.0
144
0.0208333333333333
144
0.0
144
0.0
144
0.0
144
0.0
144
1.0
144
0.0
144
0.0
144
0.0
144
0.0
144
1.0
147
0.0208333333333333
147
0.0
147
0.0
147
0.0
147
0.0
147
0.0208333333333333
147
0.0
147
0.0
147
0.0
147
0.0
147
1.0
147
0.0
147
0.0
147
0.0
147
0.0
147
1.0
  0
MATERIAL
  5
AB
102
{ACAD_XDICTIONARY
360
AC
102
}
102
{ACAD_REACTORS
330
AA
102
}
330
AA
100
AcDbMaterial
  1
ByLayer
 72
     0
 43
0.0208333333333333
 43
0.0
 43
0.0
 43
0.0
 43
0.0
 43
0.0208333333333333
 43
0.0
 43
0.0
 43
0.0
 43
0.0
 43
1.0
 43
0.0
 43
0.0
 43
0.0
 43
0.0
 43
1.0
 77
     0
 47
0.0208333333333333
 47
0.0
 47
0.0
 47
0.0
 47
0.0
 47
0.0208333333333333
 47
0.0
 47
0.0
 47
0.0
 47
0.0
 47
1.0
 47
0.0
 47
0.0
 47
0.0
 47
0.0
 47
1.0
171
     0
 49
0.0208333333333333
 49
0.0
 49
0.0
 49
0.0
 49
0.0
 49
0.0208333333333333
 49
0.0
 49
0.0
 49
0.0
 49
0.0
 49
1.0
 49
0.0
 49
0.0
 49
0.0
 49
0.0
 49
1.0
175
     0
142
0.0208333333333333
142
0.0
142
0.0
142
0.0
142
0.0
142
0.0208333333333333
142
0.0
142
0.0
142
0.0
142
0.0
142
1.0
142
0.0
142
0.0
142
0.0
142
0.0
142
1.0
179
     0
144
0.0208333333333333
144
0.0
144
0.0
144
0.0
144
0.0
144
0.0208333333333333
144
0.0
144
0.0
144
0.0
144
0.0
144
1.0
144
0.0
144
0.0
144
0.0
144
0.0
144
1.0
147
0.0208333333333333
147
0.0
147
0.0
147
0.0
147
0.0
147
0.0208333333333333
147
0.0
147
0.0
147
0.0
147
0.0
147
1.0
147
0.0
147
0.0
147
0.0
147
0.0
147
1.0
  0
MATERIAL
  5
BB
102
{ACAD_XDICTIONARY
360
BC
102
}
102
{ACAD_REACTORS
330
AA
102
}
330
AA
100
AcDbMaterial
  1
Global
 72
     0
 43
0.0208333333333333
 43
0.0
 43
0.0
 43
0.0
 43
0.0
 43
0.0208333333333333
 43
0.0
 43
0.0
 43
0.0
 43
0.0
 43
1.0
 43
0.0
 43
0.0
 43
0.0
 43
0.0
 43
1.0
 77
     0
 47
0.0208333333333333
 47
0.0
 47
0.0
 47
0.0
 47
0.0
 47
0.0208333333333333
 47
0.0
 47
0.0
 47
0.0
 47
0.0
 47
1.0
 47
0.0
 47
0.0
 47
0.0
 47
0.0
 47
1.0
171
     0
 49
0.0208333333333333
 49
0.0
 49
0.0
 49
0.0
 49
0.0
 49
0.0208333333333333
 49
0.0
 49
0.0
 49
0.0
 49
0.0
 49
1.0
 49
0.0
 49
0.0
 49
0.0
 49
0.0
 49
1.0
175
     0
142
0.0208333333333333
142
0.0
142
0.0
142
0.0
142
0.0
142
0.0208333333333333
142
0.0
142
0.0
142
0.0
142
0.0
142
1.0
142
0.0
142
0.0
142
0.0
142
0.0
142
1.0
179
     0
144
0.0208333333333333
144
0.0
144
0.0
144
0.0
144
0.0
144
0.0208333333333333
144
0.0
144
0.0
144
0.0
144
0.0
144
1.0
144
0.0
144
0.0
144
0.0
144
0.0
144
1.0
147
0.0208333333333333
147
0.0
147
0.0
147
0.0
147
0.0
147
0.0208333333333333
147
0.0
147
0.0
147
0.0
147
0.0
147
1.0
147
0.0
147
0.0
147
0.0
147
0.0
147
1.0
  0
MLEADERSTYLE
  5
F2
102
{ACAD_XDICTIONARY
360
13C
102
}
102
{ACAD_REACTORS
330
F1
102
}
330
F1
100
AcDbMLeaderStyle
179
     2
170
     2
171
     1
172
     0
 90
        2
 40
0.0
 41
0.0
173
     1
 91
-1056964608
340
14
 92
       -2
290
     1
 42
0.09
291
     1
 43
0.36
  3
Standard
 44
0.18
300

342
11
174
     1
178
     6
175
     1
176
     0
 93
-1056964608
 45
0.18
292
     0
297
     0
 46
0.18
 94
-1056964608
 47
1.0
 49
1.0
140
1.0
293
     1
141
0.0
294
     1
177
     0
142
1.0
295
     0
296
     0
143
0.125
271
     0
272
     9
273
     9
  0
MLINESTYLE
  5
18
102
{ACAD_REACTORS
330
17
102
}
330
17
100
AcDbMlineStyle
  2
STANDARD
 70
     0
  3

 62
   256
 51
90.0
 52
90.0
 71
     2
 49
0.5
 62
   256
  6
BYLAYER
 49
-0.5
 62
   256
  6
BYLAYER
  0
ACDBPLACEHOLDER
  5
2D
102
{ACAD_REACTORS
330
E
102
}
330
E
  0
ACDBPLACEHOLDER
  5
F
102
{ACAD_REACTORS
330
E
102
}
330
E
  0
SCALE
  5
E0
102
{ACAD_REACTORS
330
DF
102
}
330
DF
100
AcDbScale
 70
     0
300
1:1
140
1.0
141
1.0
290
     1
  0
SCALE
  5
E1
102
{ACAD_REACTORS
330
DF
102
}
330
DF
100
AcDbScale
 70
     0
300
1/128" = 1'-0"
140
0.0078125
141
12.0
290
     0
  0
SCALE
  5
E2
102
{ACAD_REACTORS
330
DF
102
}
330
DF
100
AcDbScale
 70
     0
300
1/64" = 1'-0"
140
0.015625
141
12.0
290
     0
  0
SCALE
  5
E3
102
{ACAD_REACTORS
330
DF
102
}
330
DF
100
AcDbScale
 70
     0
300
1/32" = 1'-0"
140
0.03125
141
12.0
290
     0
  0
SCALE
  5
E4
102
{ACAD_REACTORS
330
DF
102
}
330
DF
100
AcDbScale
 70
     0
300
1/16" = 1'-0"
140
0.0625
141
12.0
290
     0
  0
SCALE
  5
E5
102
{ACAD_REACTORS
330
DF
102
}
330
DF
100
AcDbScale
 70
     0
300
3/32" = 1'-0"
140
0.09375
141
12.0
290
     0
  0
SCALE
  5
E6
102
{ACAD_REACTORS
330
DF
102
}
330
DF
100
AcDbScale
 70
     0
300
1/8" = 1'-0"
140
0.125
141
12.0
290
     0
  0
SCALE
  5
E7
102
{ACAD_REACTORS
330
DF
102
}
330
DF
100
AcDbScale
 70
     0
300
3/16" = 1'-0"
140
0.1875
141
12.0
290
     0
  0
SCALE
  5
E8
102
{ACAD_REACTORS
330
DF
102
}
330
DF
100
AcDbScale
 70
     0
300
1/4" = 1'-0"
140
0.25
141
12.0
290
     0
  0
SCALE
  5
E9
102
{ACAD_REACTORS
330
DF
102
}
330
DF
100
AcDbScale
 70
     0
300
3/8" = 1'-0"
140
0.375
141
12.0
290
     0
  0
SCALE
  5
EA
102
{ACAD_REACTORS
330
DF
102
}
330
DF
100
AcDbScale
 70
     0
300
1/2" = 1'-0"
140
0.5
141
12.0
290
     0
  0
SCALE
  5
EB
102
{ACAD_REACTORS
330
DF
102
}
330
DF
100
AcDbScale
 70
     0
300
3/4" = 1'-0"
140
0.75
141
12.0
290
     0
  0
SCALE
  5
EC
102
{ACAD_REACTORS
330
DF
102
}
330
DF
100
AcDbScale
 70
     0
300
1" = 1'-0"
140
1.0
141
12.0
290
     0
  0
SCALE
  5
ED
102
{ACAD_REACTORS
330
DF
102
}
330
DF
100
AcDbScale
 70
     0
300
1-1/2" = 1'-0"
140
1.5
141
12.0
290
     0
  0
SCALE
  5
EE
102
{ACAD_REACTORS
330
DF
102
}
330
DF
100
AcDbScale
 70
     0
300
3" = 1'-0"
140
3.0
141
12.0
290
     0
  0
SCALE
  5
EF
102
{ACAD_REACTORS
330
DF
102
}
330
DF
100
AcDbScale
 70
     0
300
6" = 1'-0"
140
6.0
141
12.0
290
     0
  0
SCALE
  5
F0
102
{ACAD_REACTORS
330
DF
102
}
330
DF
100
AcDbScale
 70
     0
300
1'-0" = 1'-0"
140
12.0
141
12.0
290
     0
  0
ACDBSECTIONVIEWSTYLE
  5
F4
102
{ACAD_XDICTIONARY
360
13E
102
}
102
{ACAD_REACTORS
330
F3
102
}
330
F3
100
AcDbModelDocViewStyle
 70
     0
  3
Imperial24
290
     0
100
AcDbSectionViewStyle
 70
     0
 71
     0
 90
       78
 71
     1
340
11
 62
   256
 40
0.24
340
0
340
0
 62
   256
 40
0.24
300
I, O, Q, S, X, Z
 40
0.48
 90
        3
 40
0.18
 90
        1
 71
     2
340
16
 90
       25
 62
   256
340
16
 90
       50
 62
   256
 40
0.24
 40
0.0
 40
0.24
 71
     3
340
11
 62
   256
 40
0.24
 90
        1
 40
0.75
 90
        1
300
%<\AcVar ViewType \f "%tc1">% %<\AcVar ViewSectionStartId>%-%<\AcVar ViewSectionEndId>%\PSCALE %<\AcVar ViewScale \f "%sn">%
 71
     4
 62
   256
 62
   257
300
ANSI31
 40
1.0
 90
        0
290
     0
290
     0
 90
        6
 40
0.0
 40
1.570796326794896
 40
0.2617993877991494
 40
1.308996938995747
 40
-0.2617993877991494
 40
1.832595714594046
  0
TABLESTYLE
  5
DE
102
{ACAD_XDICTIONARY
360
109
102
}
102
{ACAD_REACTORS
330
DD
102
}
330
DD
100
AcDbTableStyle
280
     0
  3
Standard
 70
     0
 71
     0
 40
0.06
 41
0.06
280
     0
281
     0
  7
Standard
140
0.18
170
     2
 62
     0
 63
     7
283
     0
 90
      512
 91
        0
  1

274
    -2
284
     1
 64
     0
275
    -2
285
     1
 65
     0
276
    -2
286
     1
 66
     0
277
    -2
287
     1
 67
     0
278
    -2
288
     1
 68
     0
279
    -2
289
     1
 69
     0
  7
Standard
140
0.25
170
     5
 62
     0
 63
     7
283
     0
 90
      512
 91
        0
  1

274
    -2
284
     1
 64
     0
275
    -2
285
     1
 65
     0
276
    -2
286
     1
 66
     0
277
    -2
287
     1
 67
     0
278
    -2
288
     1
 68
     0
279
    -2
289
     1
 69
     0
  7
Standard
140
0.18
170
     5
 62
     0
 63
     7
283
     0
 90
      512
 91
        0
  1

274
    -2
284
     1
 64
     0
275
    -2
285
     1
 65
     0
276
    -2
286
     1
 66
     0
277
    -2
287
     1
 67
     0
278
    -2
288
     1
 68
     0
279
    -2
289
     1
 69
     0
  0
VISUALSTYLE
  5
C9
102
{ACAD_XDICTIONARY
360
116
102
}
102
{ACAD_REACTORS
330
C3
102
}
330
C3
100
AcDbVisualStyle
  2
2dWireframe
 70
     4
177
     2
291
     0
 71
     0
176
     1
 72
     2
176
     1
 73
     0
176
     1
 90
        0
176
     1
 40
0.6
176
     1
 41
30.0
176
     1
 63
     7
421
 16777215
176
     1
 74
     1
176
     1
 91
        4
176
     1
 64
     7
176
     1
 65
   257
176
     1
 75
     1
176
     1
175
     1
176
     1
 42
1.0
176
     1
 92
        0
176
     1
 66
   257
176
     1
 43
1.0
176
     1
 76
     1
176
     1
 77
     6
176
     1
 78
     2
176
     1
 67
     7
176
     1
 79
     5
176
     1
170
     0
176
     1
171
     0
176
     1
290
     0
176
     1
 93
        1
176
     1
 44
0.0
176
     1
173
     0
176
     1
1001
ACAD
1000
AcDbSavedByObjectVersion
1070
     0
  0
VISUALSTYLE
  5
C8
102
{ACAD_XDICTIONARY
360
114
102
}
102
{ACAD_REACTORS
330
C3
102
}
330
C3
100
AcDbVisualStyle
  2
Basic
 70
     7
177
     2
291
     1
 71
     1
176
     1
 72
     0
176
     1
 73
     1
176
     1
 90
        0
176
     1
 40
0.6
176
     1
 41
30.0
176
     1
 63
     7
421
 16777215
176
     1
 74
     0
176
     1
 91
        4
176
     1
 64
     7
176
     1
 65
   257
176
     1
 75
     1
176
     1
175
     1
176
     1
 42
1.0
176
     1
 92
        8
176
     1
 66
     7
176
     1
 43
1.0
176
     1
 76
     1
176
     1
 77
     6
176
     1
 78
     2
176
     1
 67
     7
176
     1
 79
     5
176
     1
170
     0
176
     1
171
     0
176
     1
290
     0
176
     1
 93
        1
176
     1
 44
0.0
176
     1
173
     0
176
     1
1001
ACAD
1000
AcDbSavedByObjectVersion
1070
     0
  0
VISUALSTYLE
  5
CF
102
{ACAD_XDICTIONARY
360
122
102
}
102
{ACAD_REACTORS
330
C3
102
}
330
C3
100
AcDbVisualStyle
  2
Brighten
 70
    12
177
     2
291
     1
 71
     2
176
     1
 72
     2
176
     1
 73
     0
176
     1
 90
        0
176
     1
 40
0.6
176
     1
 41
30.0
176
     1
 63
     7
421
 16777215
176
     1
 74
     1
176
     1
 91
        4
176
     1
 64
     7
176
     1
 65
   257
176
     1
 75
     1
176
     1
175
     1
176
     1
 42
1.0
176
     1
 92
        8
176
     1
 66
     7
176
     1
 43
1.0
176
     1
 76
     1
176
     1
 77
     6
176
     1
 78
     2
176
     1
 67
     7
176
     1
 79
     5
176
     1
170
     0
176
     1
171
     0
176
     1
290
     0
176
     1
 93
        1
176
     1
 44
50.0
176
     1
173
     0
176
     1
1001
ACAD
1000
AcDbSavedByObjectVersion
1070
     0
  0
VISUALSTYLE
  5
D3
102
{ACAD_XDICTIONARY
360
12A
102
}
102
{ACAD_REACTORS
330
C3
102
}
330
C3
100
AcDbVisualStyle
  2
ColorChange
 70
    16
177
     2
291
     1
 71
     2
176
     1
 72
     2
176
     1
 73
     3
176
     1
 90
        0
176
     1
 40
0.6
176
     1
 41
30.0
176
     1
 63
     8
421
  8421504
176
     1
 74
     1
176
     1
 91
        4
176
     1
 64
     7
176
     1
 65
   257
176
     1
 75
     1
176
     1
175
     1
176
     1
 42
1.0
176
     1
 92
        8
176
     1
 66
     8
424
  8421504
176
     1
 43
1.0
176
     1
 76
     1
176
     1
 77
     6
176
     1
 78
     2
176
     1
 67
     7
176
     1
 79
     5
176
     1
170
     0
176
     1
171
     0
176
     1
290
     0
176
     1
 93
        1
176
     1
 44
0.0
176
     1
173
     0
176
     1
1001
ACAD
1000
AcDbSavedByObjectVersion
1070
     0
  0
VISUALSTYLE
  5
CC
102
{ACAD_XDICTIONARY
360
11C
102
}
102
{ACAD_REACTORS
330
C3
102
}
330
C3
100
AcDbVisualStyle
  2
Conceptual
 70
     9
177
     2
291
     0
 71
     3
176
     1
 72
     2
176
     1
 73
     0
176
     1
 90
        0
176
     1
 40
0.6
176
     1
 41
30.0
176
     1
 63
     7
421
 16777215
176
     1
 74
     2
176
     1
 91
        2
176
     1
 64
     7
176
     1
 65
   257
176
     1
 75
     1
176
     1
175
     1
176
     1
 42
179.0
176
     1
 92
        8
176
     1
 66
     7
176
     1
 43
1.0
176
     1
 76
     1
176
     1
 77
     6
176
     1
 78
     2
176
     1
 67
     7
176
     1
 79
     3
176
     1
170
     0
176
     1
171
     0
176
     1
290
     0
176
     1
 93
        1
176
     1
 44
0.0
176
     1
173
     0
176
     1
1001
ACAD
1000
AcDbSavedByObjectVersion
1070
     0
  0
VISUALSTYLE
  5
CE
102
{ACAD_XDICTIONARY
360
120
102
}
102
{ACAD_REACTORS
330
C3
102
}
330
C3
100
AcDbVisualStyle
  2
Dim
 70
    11
177
     2
291
     1
 71
     2
176
     1
 72
     2
176
     1
 73
     0
176
     1
 90
        0
176
     1
 40
0.6
176
     1
 41
30.0
176
     1
 63
     7
421
 16777215
176
     1
 74
     1
176
     1
 91
        4
176
     1
 64
     7
176
     1
 65
   257
176
     1
 75
     1
176
     1
175
     1
176
     1
 42
1.0
176
     1
 92
        8
176
     1
 66
     7
176
     1
 43
1.0
176
     1
 76
     1
176
     1
 77
     6
176
     1
 78
     2
176
     1
 67
     7
176
     1
 79
     5
176
     1
170
     0
176
     1
171
     0
176
     1
290
     0
176
     1
 93
        1
176
     1
 44
-50.0
176
     1
173
     0
176
     1
1001
ACAD
1000
AcDbSavedByObjectVersion
1070
     0
  0
VISUALSTYLE
  5
DB
102
{ACAD_XDICTIONARY
360
13A
102
}
102
{ACAD_REACTORS
330
C3
102
}
330
C3
100
AcDbVisualStyle
  2
EdgeColorOff
 70
    22
177
     2
291
     1
 71
     2
176
     0
 72
     2
176
     0
 73
     0
176
     0
 90
        0
176
     0
 40
0.6
176
     0
 41
30.0
176
     0
 63
     7
421
 16777215
176
     0
 74
     1
176
     0
 91
        4
176
     0
 64
     7
176
     0
 65
   257
176
     0
 75
     1
176
     0
175
     1
176
     0
 42
1.0
176
     0
 92
        8
176
     2
 66
     7
176
     0
 43
1.0
176
     0
 76
     1
176
     0
 77
     6
176
     0
 78
     2
176
     0
 67
     7
176
     0
 79
     5
176
     0
170
     0
176
     0
171
     0
176
     0
290
     0
176
     0
 93
        1
176
     0
 44
0.0
176
     0
173
     0
176
     0
1001
ACAD
1000
AcDbSavedByObjectVersion
1070
     0
  0
VISUALSTYLE
  5
D2
102
{ACAD_XDICTIONARY
360
128
102
}
102
{ACAD_REACTORS
330
C3
102
}
330
C3
100
AcDbVisualStyle
  2
Facepattern
 70
    15
177
     2
291
     1
 71
     2
176
     1
 72
     2
176
     1
 73
     0
176
     1
 90
        0
176
     1
 40
0.6
176
     1
 41
30.0
176
     1
 63
     7
421
 16777215
176
     1
 74
     1
176
     1
 91
        4
176
     1
 64
     7
176
     1
 65
   257
176
     1
 75
     1
176
     1
175
     1
176
     1
 42
1.0
176
     1
 92
        8
176
     1
 66
     7
176
     1
 43
1.0
176
     1
 76
     1
176
     1
 77
     6
176
     1
 78
     2
176
     1
 67
     7
176
     1
 79
     5
176
     1
170
     0
176
     1
171
     0
176
     1
290
     0
176
     1
 93
        1
176
     1
 44
0.0
176
     1
173
     0
176
     1
1001
ACAD
1000
AcDbSavedByObjectVersion
1070
     0
  0
VISUALSTYLE
  5
C4
102
{ACAD_XDICTIONARY
360
10C
102
}
102
{ACAD_REACTORS
330
C3
102
}
330
C3
100
AcDbVisualStyle
  2
Flat
 70
     0
177
     2
291
     1
 71
     2
176
     1
 72
     1
176
     1
 73
     1
176
     1
 90
        2
176
     1
 40
0.6
176
     1
 41
30.0
176
     1
 63
     7
421
 16777215
176
     1
 74
     0
176
     1
 91
        0
176
     1
 64
     7
176
     1
 65
   257
176
     1
 75
     1
176
     1
175
     1
176
     1
 42
1.0
176
     1
 92
        8
176
     1
 66
     7
176
     1
 43
1.0
176
     1
 76
     1
176
     1
 77
     6
176
     1
 78
     2
176
     1
 67
     7
176
     1
 79
     5
176
     1
170
     0
176
     1
171
     0
176
     1
290
     0
176
     1
 93
       13
176
     1
 44
0.0
176
     1
173
     0
176
     1
1001
ACAD
1000
AcDbSavedByObjectVersion
1070
     0
  0
VISUALSTYLE
  5
C5
102
{ACAD_XDICTIONARY
360
10E
102
}
102
{ACAD_REACTORS
330
C3
102
}
330
C3
100
AcDbVisualStyle
  2
FlatWithEdges
 70
     1
177
     2
291
     1
 71
     2
176
     1
 72
     1
176
     1
 73
     1
176
     1
 90
        2
176
     1
 40
0.6
176
     1
 41
30.0
176
     1
 63
     7
421
 16777215
176
     1
 74
     1
176
     1
 91
        0
176
     1
 64
     7
176
     1
 65
   257
176
     1
 75
     1
176
     1
175
     1
176
     1
 42
1.0
176
     1
 92
        0
176
     1
 66
   257
176
     1
 43
1.0
176
     1
 76
     1
176
     1
 77
     6
176
     1
 78
     2
176
     1
 67
     7
176
     1
 79
     5
176
     1
170
     0
176
     1
171
     0
176
     1
290
     0
176
     1
 93
       13
176
     1
 44
0.0
176
     1
173
     0
176
     1
1001
ACAD
1000
AcDbSavedByObjectVersion
1070
     0
  0
VISUALSTYLE
  5
C6
102
{ACAD_XDICTIONARY
360
110
102
}
102
{ACAD_REACTORS
330
C3
102
}
330
C3
100
AcDbVisualStyle
  2
Gouraud
 70
     2
177
     2
291
     1
 71
     2
176
     1
 72
     2
176
     1
 73
     1
176
     1
 90
        2
176
     1
 40
0.6
176
     1
 41
30.0
176
     1
 63
     7
421
 16777215
176
     1
 74
     0
176
     1
 91
        0
176
     1
 64
     7
176
     1
 65
   257
176
     1
 75
     1
176
     1
175
     1
176
     1
 42
1.0
176
     1
 92
        0
176
     1
 66
     7
176
     1
 43
1.0
176
     1
 76
     1
176
     1
 77
     6
176
     1
 78
     2
176
     1
 67
     7
176
     1
 79
     5
176
     1
170
     0
176
     1
171
     0
176
     1
290
     0
176
     1
 93
       13
176
     1
 44
0.0
176
     1
173
     0
176
     1
1001
ACAD
1000
AcDbSavedByObjectVersion
1070
     0
  0
VISUALSTYLE
  5
C7
102
{ACAD_XDICTIONARY
360
112
102
}
102
{ACAD_REACTORS
330
C3
102
}
330
C3
100
AcDbVisualStyle
  2
GouraudWithEdges
 70
     3
177
     2
291
     1
 71
     2
176
     1
 72
     2
176
     1
 73
     1
176
     1
 90
        2
176
     1
 40
0.6
176
     1
 41
30.0
176
     1
 63
     7
421
 16777215
176
     1
 74
     1
176
     1
 91
        0
176
     1
 64
     7
176
     1
 65
   257
176
     1
 75
     1
176
     1
175
     1
176
     1
 42
1.0
176
     1
 92
        0
176
     1
 66
   257
176
     1
 43
1.0
176
     1
 76
     1
176
     1
 77
     6
176
     1
 78
     2
176
     1
 67
     7
176
     1
 79
     5
176
     1
170
     0
176
     1
171
     0
176
     1
290
     0
176
     1
 93
       13
176
     1
 44
0.0
176
     1
173
     0
176
     1
1001
ACAD
1000
AcDbSavedByObjectVersion
1070
     0
  0
VISUALSTYLE
  5
CB
102
{ACAD_XDICTIONARY
360
11A
102
}
102
{ACAD_REACTORS
330
C3
102
}
330
C3
100
AcDbVisualStyle
  2
Hidden
 70
     6
177
     2
291
     0
 71
     1
176
     1
 72
     2
176
     1
 73
     2
176
     1
 90
        0
176
     1
 40
0.6
176
     1
 41
30.0
176
     1
 63
     7
421
 16777215
176
     1
 74
     2
176
     1
 91
        2
176
     1
 64
     7
176
     1
 65
   257
176
     1
 75
     2
176
     1
175
     1
176
     1
 42
40.0
176
     1
 92
        0
176
     1
 66
   257
176
     1
 43
1.0
176
     1
 76
     1
176
     1
 77
     6
176
     1
 78
     2
176
     1
 67
     7
176
     1
 79
     3
176
     1
170
     0
176
     1
171
     0
176
     1
290
     0
176
     1
 93
        1
176
     1
 44
0.0
176
     1
173
     0
176
     1
1001
ACAD
1000
AcDbSavedByObjectVersion
1070
     0
  0
VISUALSTYLE
  5
D9
102
{ACAD_XDICTIONARY
360
136
102
}
102
{ACAD_REACTORS
330
C3
102
}
330
C3
100
AcDbVisualStyle
  2
JitterOff
 70
    20
177
     2
291
     1
 71
     2
176
     0
 72
     2
176
     0
 73
     0
176
     0
 90
        0
176
     0
 40
0.6
176
     0
 41
30.0
176
     0
 63
     7
421
 16777215
176
     0
 74
     1
176
     0
 91
        4
176
     0
 64
     7
176
     0
 65
   257
176
     0
 75
     1
176
     0
175
     1
176
     0
 42
1.0
176
     0
 92
       10
176
     2
 66
     7
176
     0
 43
1.0
176
     0
 76
     1
176
     0
 77
     6
176
     0
 78
     2
176
     0
 67
     7
176
     0
 79
     5
176
     0
170
     0
176
     0
171
     0
176
     0
290
     0
176
     0
 93
        1
176
     0
 44
0.0
176
     0
173
     0
176
     0
1001
ACAD
1000
AcDbSavedByObjectVersion
1070
     0
  0
VISUALSTYLE
  5
D1
102
{ACAD_XDICTIONARY
360
126
102
}
102
{ACAD_REACTORS
330
C3
102
}
330
C3
100
AcDbVisualStyle
  2
Linepattern
 70
    14
177
     2
291
     1
 71
     2
176
     1
 72
     2
176
     1
 73
     0
176
     1
 90
        0
176
     1
 40
0.6
176
     1
 41
30.0
176
     1
 63
     7
421
 16777215
176
     1
 74
     1
176
     1
 91
        4
176
     1
 64
     7
176
     1
 65
   257
176
     1
 75
     7
176
     1
175
     7
176
     1
 42
1.0
176
     1
 92
        8
176
     1
 66
     7
176
     1
 43
1.0
176
     1
 76
     1
176
     1
 77
     6
176
     1
 78
     2
176
     1
 67
     7
176
     1
 79
     5
176
     1
170
     0
176
     1
171
     0
176
     1
290
     0
176
     1
 93
        1
176
     1
 44
0.0
176
     1
173
     0
176
     1
1001
ACAD
1000
AcDbSavedByObjectVersion
1070
     0
  0
VISUALSTYLE
  5
DA
102
{ACAD_XDICTIONARY
360
138
102
}
102
{ACAD_REACTORS
330
C3
102
}
330
C3
100
AcDbVisualStyle
  2
OverhangOff
 70
    21
177
     2
291
     1
 71
     2
176
     0
 72
     2
176
     0
 73
     0
176
     0
 90
        0
176
     0
 40
0.6
176
     0
 41
30.0
176
     0
 63
     7
421
 16777215
176
     0
 74
     1
176
     0
 91
        4
176
     0
 64
     7
176
     0
 65
   257
176
     0
 75
     1
176
     0
175
     1
176
     0
 42
1.0
176
     0
 92
        9
176
     2
 66
     7
176
     0
 43
1.0
176
     0
 76
     1
176
     0
 77
     6
176
     0
 78
     2
176
     0
 67
     7
176
     0
 79
     5
176
     0
170
     0
176
     0
171
     0
176
     0
290
     0
176
     0
 93
        1
176
     0
 44
0.0
176
     0
173
     0
176
     0
1001
ACAD
1000
AcDbSavedByObjectVersion
1070
     0
  0
VISUALSTYLE
  5
CD
102
{ACAD_XDICTIONARY
360
11E
102
}
102
{ACAD_REACTORS
330
C3
102
}
330
C3
100
AcDbVisualStyle
  2
Realistic
 70
     8
177
     2
291
     0
 71
     2
176
     1
 72
     3
176
     1
 73
     0
176
     1
 90
        2
176
     1
 40
0.6
176
     1
 41
30.0
176
     1
 63
     7
421
 16777215
176
     1
 74
     0
176
     1
 91
        0
176
     1
 64
     7
176
     1
 65
   257
176
     1
 75
     1
176
     1
175
     1
176
     1
 42
1.0
176
     1
 92
        8
176
     1
 66
   257
176
     1
 43
1.0
176
     1
 76
     1
176
     1
 77
     6
176
     1
 78
     2
176
     1
 67
     7
176
     1
 79
     3
176
     1
170
     0
176
     1
171
     0
176
     1
290
     0
176
     1
 93
       13
176
     1
 44
0.0
176
     1
173
     0
176
     1
1001
ACAD
1000
AcDbSavedByObjectVersion
1070
     0
  0
VISUALSTYLE
  5
D8
102
{ACAD_XDICTIONARY
360
134
102
}
102
{ACAD_REACTORS
330
C3
102
}
330
C3
100
AcDbVisualStyle
  2
Shaded
 70
    27
177
     2
291
     0
 71
     2
176
     1
 72
     2
176
     1
 73
     1
176
     1
 90
        2
176
     1
 40
0.6
176
     1
 41
30.0
176
     1
 63
     7
421
 16777215
176
     1
 74
     0
176
     1
 91
        4
176
     1
 64
     7
176
     1
 65
   257
176
     1
 75
     1
176
     1
175
     1
176
     1
 42
1.0
176
     1
 92
        8
176
     1
 66
   257
176
     1
 43
1.0
176
     1
 76
     1
176
     1
 77
     6
176
     1
 78
     2
176
     1
 67
     8
425
  7895160
176
     1
 79
     3
176
     1
170
     0
176
     1
171
     0
176
     1
290
     0
176
     1
 93
        5
176
     1
 44
0.0
176
     1
173
     0
176
     1
1001
ACAD
1000
AcDbSavedByObjectVersion
1070
     0
  0
VISUALSTYLE
  5
D7
102
{ACAD_XDICTIONARY
360
132
102
}
102
{ACAD_REACTORS
330
C3
102
}
330
C3
100
AcDbVisualStyle
  2
Shaded with edges
 70
    26
177
     2
291
     0
 71
     2
176
     1
 72
     2
176
     1
 73
     1
176
     1
 90
        2
176
     1
 40
0.6
176
     1
 41
30.0
176
     1
 63
     7
421
 16777215
176
     1
 74
     1
176
     1
 91
        2
176
     1
 64
     7
176
     1
 65
   257
176
     1
 75
     2
176
     1
175
     1
176
     1
 42
1.0
176
     1
 92
        8
176
     1
 66
   257
176
     1
 43
1.0
176
     1
 76
     1
176
     1
 77
     6
176
     1
 78
     2
176
     1
 67
     7
176
     1
 79
     3
176
     1
170
     0
176
     1
171
     0
176
     1
290
     0
176
     1
 93
        5
176
     1
 44
0.0
176
     1
173
     0
176
     1
1001
ACAD
1000
AcDbSavedByObjectVersion
1070
     0
  0
VISUALSTYLE
  5
D4
102
{ACAD_XDICTIONARY
360
12C
102
}
102
{ACAD_REACTORS
330
C3
102
}
330
C3
100
AcDbVisualStyle
  2
Shades of Gray
 70
    23
177
     2
291
     0
 71
     2
176
     1
 72
     2
176
     1
 73
     3
176
     1
 90
        0
176
     1
 40
0.6
176
     1
 41
30.0
176
     1
 63
     7
421
 16777215
176
     1
 74
     2
176
     1
 91
        2
176
     1
 64
     7
176
     1
 65
     7
176
     1
 75
     1
176
     1
175
     1
176
     1
 42
40.0
176
     1
 92
        8
176
     1
 66
     7
176
     1
 43
1.0
176
     1
 76
     1
176
     1
 77
     6
176
     1
 78
     2
176
     1
 67
     7
176
     1
 79
     3
176
     1
170
     0
176
     1
171
     0
176
     1
290
     0
176
     1
 93
        1
176
     1
 44
0.0
176
     1
173
     0
176
     1
1001
ACAD
1000
AcDbSavedByObjectVersion
1070
     0
  0
VISUALSTYLE
  5
D5
102
{ACAD_XDICTIONARY
360
12E
102
}
102
{ACAD_REACTORS
330
C3
102
}
330
C3
100
AcDbVisualStyle
  2
Sketchy
 70
    24
177
     2
291
     0
 71
     1
176
     1
 72
     2
176
     1
 73
     2
176
     1
 90
        0
176
     1
 40
0.6
176
     1
 41
30.0
176
     1
 63
     7
421
 16777215
176
     1
 74
     2
176
     1
 91
        2
176
     1
 64
     7
176
     1
 65
     7
176
     1
 75
     1
176
     1
175
     1
176
     1
 42
40.0
176
     1
 92
       11
176
     1
 66
     7
176
     1
 43
1.0
176
     1
 76
     1
176
     1
 77
     6
176
     1
 78
     2
176
     1
 67
     7
176
     1
 79
     6
176
     1
170
     0
176
     1
171
     0
176
     1
290
     0
176
     1
 93
        1
176
     1
 44
0.0
176
     1
173
     0
176
     1
1001
ACAD
1000
AcDbSavedByObjectVersion
1070
     0
  0
VISUALSTYLE
  5
D0
102
{ACAD_XDICTIONARY
360
124
102
}
102
{ACAD_REACTORS
330
C3
102
}
330
C3
100
AcDbVisualStyle
  2
Thicken
 70
    13
177
     2
291
     1
 71
     2
176
     1
 72
     2
176
     1
 73
     0
176
     1
 90
        0
176
     1
 40
0.6
176
     1
 41
30.0
176
     1
 63
     7
421
 16777215
176
     1
 74
     1
176
     1
 91
        4
176
     1
 64
     7
176
     1
 65
   257
176
     1
 75
     1
176
     1
175
     1
176
     1
 42
1.0
176
     1
 92
       12
176
     1
 66
     7
176
     1
 43
1.0
176
     1
 76
     1
176
     1
 77
     6
176
     1
 78
     2
176
     1
 67
     7
176
     1
 79
     5
176
     1
170
     0
176
     1
171
     0
176
     1
290
     0
176
     1
 93
        1
176
     1
 44
0.0
176
     1
173
     0
176
     1
1001
ACAD
1000
AcDbSavedByObjectVersion
1070
     0
  0
VISUALSTYLE
  5
CA
102
{ACAD_XDICTIONARY
360
118
102
}
102
{ACAD_REACTORS
330
C3
102
}
330
C3
100
AcDbVisualStyle
  2
Wireframe
 70
     5
177
     2
291
     0
 71
     0
176
     1
 72
     2
176
     1
 73
     0
176
     1
 90
        0
176
     1
 40
0.6
176
     1
 41
30.0
176
     1
 63
     7
421
 16777215
176
     1
 74
     1
176
     1
 91
        4
176
     1
 64
     7
176
     1
 65
   257
176
     1
 75
     1
176
     1
175
     1
176
     1
 42
1.0
176
     1
 92
        0
176
     1
 66
   257
176
     1
 43
1.0
176
     1
 76
     1
176
     1
 77
     6
176
     1
 78
     2
176
     1
 67
     7
176
     1
 79
     3
176
     1
170
     0
176
     1
171
     0
176
     1
290
     0
176
     1
 93
        1
176
     1
 44
0.0
176
     1
173
     0
176
     1
1001
ACAD
1000
AcDbSavedByObjectVersion
1070
     0
  0
VISUALSTYLE
  5
D6
102
{ACAD_XDICTIONARY
360
130
102
}
102
{ACAD_REACTORS
330
C3
102
}
330
C3
100
AcDbVisualStyle
  2
X-Ray
 70
    25
177
     2
291
     0
 71
     2
176
     1
 72
     2
176
     1
 73
     1
176
     1
 90
        1
176
     1
 40
0.5
176
     1
 41
30.0
176
     1
 63
     7
421
 16777215
176
     1
 74
     1
176
     1
 91
        0
176
     1
 64
     7
176
     1
 65
   257
176
     1
 75
     1
176
     1
175
     1
176
     1
 42
1.0
176
     1
 92
        8
176
     1
 66
     7
176
     1
 43
1.0
176
     1
 76
     1
176
     1
 77
     6
176
     1
 78
     2
176
     1
 67
     7
176
     1
 79
     3
176
     1
170
     0
176
     1
171
     0
176
     1
290
     0
176
     1
 93
       13
176
     1
 44
0.0
176
     1
173
     0
176
     1
1001
ACAD
1000
AcDbSavedByObjectVersion
1070
     0
  0
DICTIONARYVAR
  5
105
102
{ACAD_REACTORS
330
FF
102
}
330
FF
100
DictionaryVariables
280
     0
  1
1:1
  0
DICTIONARYVAR
  5
101
102
{ACAD_REACTORS
330
FF
102
}
330
FF
100
DictionaryVariables
280
     0
  1
STANDARD
  0
DICTIONARYVAR
  5
100
102
{ACAD_REACTORS
330
FF
102
}
330
FF
100
DictionaryVariables
280
     0
  1
STANDARD
  0
DICTIONARYVAR
  5
102
102
{ACAD_REACTORS
330
FF
102
}
330
FF
100
DictionaryVariables
280
     0
  1
Imperial24
  0
DICTIONARYVAR
  5
103
102
{ACAD_REACTORS
330
FF
102
}
330
FF
100
DictionaryVariables
280
     0
  1
Imperial24
  0
DICTIONARYVAR
  5
107
102
{ACAD_REACTORS
330
FF
102
}
330
FF
100
DictionaryVariables
280
     0
  1
1
  0
DICTIONARYVAR
  5
108
102
{ACAD_REACTORS
330
FF
102
}
330
FF
100
DictionaryVariables
280
     0
  1
15
  0
DICTIONARYVAR
  5
106
102
{ACAD_REACTORS
330
FF
102
}
330
FF
100
DictionaryVariables
280
     0
  1
0
  0
DICTIONARYVAR
  5
104
102
{ACAD_REACTORS
330
FF
102
}
330
FF
100
DictionaryVariables
280
     0
  1
0
  0
DICTIONARY
  5
140
330
F6
100
AcDbDictionary
280
     1
281
     1
  3
ACAD_XREC_ROUNDTRIP
360
141
  0
DICTIONARY
  5
B4
330
B3
100
AcDbDictionary
280
     1
281
     1
  3
BUMPTILE
360
B6
  3
DIFFUSETILE
360
B5
  3
OPACITYTILE
360
B9
  3
REFLECTIONTILE
360
B8
  3
REFRACTIONTILE
360
BA
  3
SPECULARTILE
360
B7
  0
DICTIONARY
  5
AC
330
AB
100
AcDbDictionary
280
     1
281
     1
  3
BUMPTILE
360
AE
  3
DIFFUSETILE
360
AD
  3
OPACITYTILE
360
B1
  3
REFLECTIONTILE
360
B0
  3
REFRACTIONTILE
360
B2
  3
SPECULARTILE
360
AF
  0
DICTIONARY
  5
BC
330
BB
100
AcDbDictionary
280
     1
281
     1
  3
BUMPTILE
360
BE
  3
DIFFUSETILE
360
BD
  3
OPACITYTILE
360
C1
  3
REFLECTIONTILE
360
C0
  3
REFRACTIONTILE
360
C2
  3
SPECULARTILE
360
BF
  0
DICTIONARY
  5
13C
330
F2
100
AcDbDictionary
280
     1
281
     1
  3
ACAD_XREC_ROUNDTRIP
360
13D
  0
DICTIONARY
  5
13E
330
F4
100
AcDbDictionary
280
     1
281
     1
  3
ACAD_XREC_ROUNDTRIP
360
13F
  0
DICTIONARY
  5
109
330
DE
100
AcDbDictionary
280
     1
281
     1
  3
ACAD_ROUNDTRIP_2008_TABLESTYLE_CELLSTYLEMAP
360
10A
  0
DICTIONARY
  5
116
330
C9
100
AcDbDictionary
280
     1
281
     1
  3
ACAD_XREC_ROUNDTRIP
360
117
  0
DICTIONARY
  5
114
330
C8
100
AcDbDictionary
280
     1
281
     1
  3
ACAD_XREC_ROUNDTRIP
360
115
  0
DICTIONARY
  5
122
330
CF
100
AcDbDictionary
280
     1
281
     1
  3
ACAD_XREC_ROUNDTRIP
360
123
  0
DICTIONARY
  5
12A
330
D3
100
AcDbDictionary
280
     1
281
     1
  3
ACAD_XREC_ROUNDTRIP
360
12B
  0
DICTIONARY
  5
11C
330
CC
100
AcDbDictionary
280
     1
281
     1
  3
ACAD_XREC_ROUNDTRIP
360
11D
  0
DICTIONARY
  5
120
330
CE
100
AcDbDictionary
280
     1
281
     1
  3
ACAD_XREC_ROUNDTRIP
360
121
  0
DICTIONARY
  5
13A
330
DB
100
AcDbDictionary
280
     1
281
     1
  3
ACAD_XREC_ROUNDTRIP
360
13B
  0
DICTIONARY
  5
128
330
D2
100
AcDbDictionary
280
     1
281
     1
  3
ACAD_XREC_ROUNDTRIP
360
129
  0
DICTIONARY
  5
10C
330
C4
100
AcDbDictionary
280
     1
281
     1
  3
ACAD_XREC_ROUNDTRIP
360
10D
  0
DICTIONARY
  5
10E
330
C5
100
AcDbDictionary
280
     1
281
     1
  3
ACAD_XREC_ROUNDTRIP
360
10F
  0
DICTIONARY
  5
110
330
C6
100
AcDbDictionary
280
     1
281
     1
  3
ACAD_XREC_ROUNDTRIP
360
111
  0
DICTIONARY
  5
112
330
C7
100
AcDbDictionary
280
     1
281
     1
  3
ACAD_XREC_ROUNDTRIP
360
113
  0
DICTIONARY
  5
11A
330
CB
100
AcDbDictionary
280
     1
281
     1
  3
ACAD_XREC_ROUNDTRIP
360
11B
  0
DICTIONARY
  5
136
330
D9
100
AcDbDictionary
280
     1
281
     1
  3
ACAD_XREC_ROUNDTRIP
360
137
  0
DICTIONARY
  5
126
330
D1
100
AcDbDictionary
280
     1
281
     1
  3
ACAD_XREC_ROUNDTRIP
360
127
  0
DICTIONARY
  5
138
330
DA
100
AcDbDictionary
280
     1
281
     1
  3
ACAD_XREC_ROUNDTRIP
360
139
  0
DICTIONARY
  5
11E
330
CD
100
AcDbDictionary
280
     1
281
     1
  3
ACAD_XREC_ROUNDTRIP
360
11F
  0
DICTIONARY
  5
134
330
D8
100
AcDbDictionary
280
     1
281
     1
  3
ACAD_XREC_ROUNDTRIP
360
135
  0
DICTIONARY
  5
132
330
D7
100
AcDbDictionary
280
     1
281
     1
  3
ACAD_XREC_ROUNDTRIP
360
133
  0
DICTIONARY
  5
12C
330
D4
100
AcDbDictionary
280
     1
281
     1
  3
ACAD_XREC_ROUNDTRIP
360
12D
  0
DICTIONARY
  5
12E
330
D5
100
AcDbDictionary
280
     1
281
     1
  3
ACAD_XREC_ROUNDTRIP
360
12F
  0
DICTIONARY
  5
124
330
D0
100
AcDbDictionary
280
     1
281
     1
  3
ACAD_XREC_ROUNDTRIP
360
125
  0
DICTIONARY
  5
118
330
CA
100
AcDbDictionary
280
     1
281
     1
  3
ACAD_XREC_ROUNDTRIP
360
119
  0
DICTIONARY
  5
130
330
D6
100
AcDbDictionary
280
     1
281
     1
  3
ACAD_XREC_ROUNDTRIP
360
131
  0
XRECORD
  5
141
102
{ACAD_REACTORS
330
140
102
}
330
140
100
AcDbXrecord
280
     1
102
DISPLAYNAME
  1
Imperial24
102
FLAGS
 90
        0
  0
XRECORD
  5
B6
102
{ACAD_REACTORS
330
B4
102
}
330
B4
100
AcDbXrecord
280
     1
270
     1
271
     1
  0
XRECORD
  5
B5
102
{ACAD_REACTORS
330
B4
102
}
330
B4
100
AcDbXrecord
280
     1
270
     1
271
     1
  0
XRECORD
  5
B9
102
{ACAD_REACTORS
330
B4
102
}
330
B4
100
AcDbXrecord
280
     1
270
     1
271
     1
  0
XRECORD
  5
B8
102
{ACAD_REACTORS
330
B4
102
}
330
B4
100
AcDbXrecord
280
     1
270
     1
271
     1
  0
XRECORD
  5
BA
102
{ACAD_REACTORS
330
B4
102
}
330
B4
100
AcDbXrecord
280
     1
270
     1
271
     1
  0
XRECORD
  5
B7
102
{ACAD_REACTORS
330
B4
102
}
330
B4
100
AcDbXrecord
280
     1
270
     1
271
     1
  0
XRECORD
  5
AE
102
{ACAD_REACTORS
330
AC
102
}
330
AC
100
AcDbXrecord
280
     1
270
     1
271
     1
  0
XRECORD
  5
AD
102
{ACAD_REACTORS
330
AC
102
}
330
AC
100
AcDbXrecord
280
     1
270
     1
271
     1
  0
XRECORD
  5
B1
102
{ACAD_REACTORS
330
AC
102
}
330
AC
100
AcDbXrecord
280
     1
270
     1
271
     1
  0
XRECORD
  5
B0
102
{ACAD_REACTORS
330
AC
102
}
330
AC
100
AcDbXrecord
280
     1
270
     1
271
     1
  0
XRECORD
  5
B2
102
{ACAD_REACTORS
330
AC
102
}
330
AC
100
AcDbXrecord
280
     1
270
     1
271
     1
  0
XRECORD
  5
AF
102
{ACAD_REACTORS
330
AC
102
}
330
AC
100
AcDbXrecord
280
     1
270
     1
271
     1
  0
XRECORD
  5
BE
102
{ACAD_REACTORS
330
BC
102
}
330
BC
100
AcDbXrecord
280
     1
270
     1
271
     1
  0
XRECORD
  5
BD
102
{ACAD_REACTORS
330
BC
102
}
330
BC
100
AcDbXrecord
280
     1
270
     1
271
     1
  0
XRECORD
  5
C1
102
{ACAD_REACTORS
330
BC
102
}
330
BC
100
AcDbXrecord
280
     1
270
     1
271
     1
  0
XRECORD
  5
C0
102
{ACAD_REACTORS
330
BC
102
}
330
BC
100
AcDbXrecord
280
     1
270
     1
271
     1
  0
XRECORD
  5
C2
102
{ACAD_REACTORS
330
BC
102
}
330
BC
100
AcDbXrecord
280
     1
270
     1
271
     1
  0
XRECORD
  5
BF
102
{ACAD_REACTORS
330
BC
102
}
330
BC
100
AcDbXrecord
280
     1
270
     1
271
     1
  0
XRECORD
  5
13D
102
{ACAD_REACTORS
330
13C
102
}
330
13C
100
AcDbXrecord
280
     1
102
ACAD_ROUNDTRIP_2012_MLEADER_STYLE
298
     1
  0
XRECORD
  5
13F
102
{ACAD_REACTORS
330
13E
102
}
330
13E
100
AcDbXrecord
280
     1
102
DISPLAYNAME
  1
Imperial24
102
FLAGS
 90
        0
  0
CELLSTYLEMAP
  5
10A
102
{ACAD_REACTORS
330
109
102
}
330
109
100
AcDbCellStyleMap
 90
        3
300
CELLSTYLE
  1
TABLEFORMAT_BEGIN
 90
        5
170
     1
 91
        0
 92
    32768
 62
   257
 93
        1
300
CONTENTFORMAT
  1
CONTENTFORMAT_BEGIN
 90
        0
 91
        0
 92
      512
 93
        0
300

 40
0.0
140
1.0
 94
        5
 62
     0
340
11
144
0.25
309
CONTENTFORMAT_END
171
     0
 94
        0
309
TABLEFORMAT_END
  1
CELLSTYLE_BEGIN
 90
        1
 91
        1
300
_TITLE
309
CELLSTYLE_END
300
CELLSTYLE
  1
TABLEFORMAT_BEGIN
 90
        5
170
     1
 91
        0
 92
        0
 62
   257
 93
        1
300
CONTENTFORMAT
  1
CONTENTFORMAT_BEGIN
 90
        0
 91
        0
 92
      512
 93
        0
300

 40
0.0
140
1.0
 94
        5
 62
     0
340
11
144
0.18
309
CONTENTFORMAT_END
171
     0
 94
        0
309
TABLEFORMAT_END
  1
CELLSTYLE_BEGIN
 90
        2
 91
        1
300
_HEADER
309
CELLSTYLE_END
300
CELLSTYLE
  1
TABLEFORMAT_BEGIN
 90
        5
170
     1
 91
        0
 92
        0
 62
   257
 93
        1
300
CONTENTFORMAT
  1
CONTENTFORMAT_BEGIN
 90
        0
 91
        0
 92
      512
 93
        0
300

 40
0.0
140
1.0
 94
        2
 62
     0
340
11
144
0.18
309
CONTENTFORMAT_END
171
     0
 94
        0
309
TABLEFORMAT_END
  1
CELLSTYLE_BEGIN
 90
        3
 91
        2
300
_DATA
309
CELLSTYLE_END
  0
XRECORD
  5
117
102
{ACAD_REACTORS
330
116
102
}
330
116
100
AcDbXrecord
280
     1
102
RTVSPost2010Prop28
280
     1
102
RTVSPost2010PropOp28
 70
     1
102
RTVSPost2010Prop29
280
     1
102
RTVSPost2010PropOp29
 70
     1
102
RTVSPost2010Prop30
280
     0
102
RTVSPost2010PropOp30
 70
     1
102
RTVSPost2010Prop31
280
     0
102
RTVSPost2010PropOp31
 70
     1
102
RTVSPost2010Prop32
280
     0
102
RTVSPost2010PropOp32
 70
     1
102
RTVSPost2010Prop33
280
     0
102
RTVSPost2010PropOp33
 70
     1
102
RTVSPost2010Prop34
280
     0
102
RTVSPost2010PropOp34
 70
     1
102
RTVSPost2010Prop35
280
     0
102
RTVSPost2010PropOp35
 70
     1
102
RTVSPost2010Prop36
280
     0
102
RTVSPost2010PropOp36
 70
     1
102
RTVSPost2010Prop37
 90
       50
102
RTVSPost2010PropOp37
 70
     1
102
RTVSPost2010Prop38
140
0.0
102
RTVSPost2010PropOp38
 70
     1
102
RTVSPost2010Prop39
140
1.0
102
RTVSPost2010PropOp39
 70
     1
102
RTVSPost2010Prop40
 90
        0
102
RTVSPost2010PropOp40
 70
     1
102
RTVSPost2010Prop41ColorIndex
 90
       18
102
RTVSPost2010Prop41ColorRGB
 90
        0
102
RTVSPost2010PropOp41
 70
     1
102
RTVSPost2010Prop42
 90
       50
102
RTVSPost2010PropOp42
 70
     1
102
RTVSPost2010Prop43
 90
        3
102
RTVSPost2010PropOp43
 70
     1
102
RTVSPost2010Prop44ColorIndex
 90
        5
102
RTVSPost2010Prop44ColorRGB
 90
      255
102
RTVSPost2010PropOp44
 70
     1
102
RTVSPost2010Prop45
280
     0
102
RTVSPost2010PropOp45
 70
     1
102
RTVSPost2010Prop46
 90
       50
102
RTVSPost2010PropOp46
 70
     1
102
RTVSPost2010Prop47
 90
       50
102
RTVSPost2010PropOp47
 70
     1
102
RTVSPost2010Prop48
 90
       50
102
RTVSPost2010PropOp48
 70
     1
102
RTVSPost2010Prop49
280
     0
102
RTVSPost2010PropOp49
 70
     1
102
RTVSPost2010Prop50
 90
       50
102
RTVSPost2010PropOp50
 70
     1
102
RTVSPost2010Prop51ColorIndex
 90
      256
102
RTVSPost2010Prop51ColorRGB
 90
-16777216
102
RTVSPost2010PropOp51
 70
     0
102
RTVSPost2010Prop52
140
1.0
102
RTVSPost2010PropOp52
 70
     0
102
RTVSPost2010Prop53
 90
        2
102
RTVSPost2010PropOp53
 70
     1
102
RTVSPost2010Prop54
  1
strokes_ogs.tif
102
RTVSPost2010PropOp54
 70
     1
102
RTVSPost2010Prop55
280
     0
102
RTVSPost2010PropOp55
 70
     1
102
RTVSPost2010Prop56
140
1.0
102
RTVSPost2010PropOp56
 70
     1
102
RTVSPost2010Prop57
140
1.0
102
RTVSPost2010PropOp57
 70
     1
  0
XRECORD
  5
115
102
{ACAD_REACTORS
330
114
102
}
330
114
100
AcDbXrecord
280
     1
102
RTVSPost2010Prop28
280
     0
102
RTVSPost2010PropOp28
 70
     1
102
RTVSPost2010Prop29
280
     1
102
RTVSPost2010PropOp29
 70
     1
102
RTVSPost2010Prop30
280
     1
102
RTVSPost2010PropOp30
 70
     1
102
RTVSPost2010Prop31
280
     0
102
RTVSPost2010PropOp31
 70
     1
102
RTVSPost2010Prop32
280
     0
102
RTVSPost2010PropOp32
 70
     1
102
RTVSPost2010Prop33
280
     0
102
RTVSPost2010PropOp33
 70
     1
102
RTVSPost2010Prop34
280
     0
102
RTVSPost2010PropOp34
 70
     1
102
RTVSPost2010Prop35
280
     0
102
RTVSPost2010PropOp35
 70
     1
102
RTVSPost2010Prop36
280
     0
102
RTVSPost2010PropOp36
 70
     1
102
RTVSPost2010Prop37
 90
       50
102
RTVSPost2010PropOp37
 70
     1
102
RTVSPost2010Prop38
140
0.0
102
RTVSPost2010PropOp38
 70
     1
102
RTVSPost2010Prop39
140
1.0
102
RTVSPost2010PropOp39
 70
     1
102
RTVSPost2010Prop40
 90
        0
102
RTVSPost2010PropOp40
 70
     1
102
RTVSPost2010Prop41ColorIndex
 90
       18
102
RTVSPost2010Prop41ColorRGB
 90
        0
102
RTVSPost2010PropOp41
 70
     1
102
RTVSPost2010Prop42
 90
       50
102
RTVSPost2010PropOp42
 70
     1
102
RTVSPost2010Prop43
 90
        3
102
RTVSPost2010PropOp43
 70
     1
102
RTVSPost2010Prop44ColorIndex
 90
        5
102
RTVSPost2010Prop44ColorRGB
 90
      255
102
RTVSPost2010PropOp44
 70
     1
102
RTVSPost2010Prop45
280
     0
102
RTVSPost2010PropOp45
 70
     1
102
RTVSPost2010Prop46
 90
       50
102
RTVSPost2010PropOp46
 70
     1
102
RTVSPost2010Prop47
 90
       50
102
RTVSPost2010PropOp47
 70
     1
102
RTVSPost2010Prop48
 90
       50
102
RTVSPost2010PropOp48
 70
     1
102
RTVSPost2010Prop49
280
     0
102
RTVSPost2010PropOp49
 70
     1
102
RTVSPost2010Prop50
 90
       50
102
RTVSPost2010PropOp50
 70
     1
102
RTVSPost2010Prop51ColorIndex
 90
      256
102
RTVSPost2010Prop51ColorRGB
 90
-16777216
102
RTVSPost2010PropOp51
 70
     0
102
RTVSPost2010Prop52
140
1.0
102
RTVSPost2010PropOp52
 70
     0
102
RTVSPost2010Prop53
 90
        2
102
RTVSPost2010PropOp53
 70
     1
102
RTVSPost2010Prop54
  1
strokes_ogs.tif
102
RTVSPost2010PropOp54
 70
     1
102
RTVSPost2010Prop55
280
     0
102
RTVSPost2010PropOp55
 70
     1
102
RTVSPost2010Prop56
140
1.0
102
RTVSPost2010PropOp56
 70
     1
102
RTVSPost2010Prop57
140
1.0
102
RTVSPost2010PropOp57
 70
     1
  0
XRECORD
  5
123
102
{ACAD_REACTORS
330
122
102
}
330
122
100
AcDbXrecord
280
     1
102
RTVSPost2010Prop28
280
     0
102
RTVSPost2010PropOp28
 70
     1
102
RTVSPost2010Prop29
280
     1
102
RTVSPost2010PropOp29
 70
     1
102
RTVSPost2010Prop30
280
     1
102
RTVSPost2010PropOp30
 70
     1
102
RTVSPost2010Prop31
280
     0
102
RTVSPost2010PropOp31
 70
     1
102
RTVSPost2010Prop32
280
     0
102
RTVSPost2010PropOp32
 70
     1
102
RTVSPost2010Prop33
280
     0
102
RTVSPost2010PropOp33
 70
     1
102
RTVSPost2010Prop34
280
     0
102
RTVSPost2010PropOp34
 70
     1
102
RTVSPost2010Prop35
280
     0
102
RTVSPost2010PropOp35
 70
     1
102
RTVSPost2010Prop36
280
     0
102
RTVSPost2010PropOp36
 70
     1
102
RTVSPost2010Prop37
 90
       50
102
RTVSPost2010PropOp37
 70
     1
102
RTVSPost2010Prop38
140
0.0
102
RTVSPost2010PropOp38
 70
     1
102
RTVSPost2010Prop39
140
1.0
102
RTVSPost2010PropOp39
 70
     1
102
RTVSPost2010Prop40
 90
        0
102
RTVSPost2010PropOp40
 70
     1
102
RTVSPost2010Prop41ColorIndex
 90
       18
102
RTVSPost2010Prop41ColorRGB
 90
        0
102
RTVSPost2010PropOp41
 70
     1
102
RTVSPost2010Prop42
 90
       50
102
RTVSPost2010PropOp42
 70
     1
102
RTVSPost2010Prop43
 90
        3
102
RTVSPost2010PropOp43
 70
     1
102
RTVSPost2010Prop44ColorIndex
 90
        5
102
RTVSPost2010Prop44ColorRGB
 90
      255
102
RTVSPost2010PropOp44
 70
     1
102
RTVSPost2010Prop45
280
     0
102
RTVSPost2010PropOp45
 70
     1
102
RTVSPost2010Prop46
 90
       50
102
RTVSPost2010PropOp46
 70
     1
102
RTVSPost2010Prop47
 90
       50
102
RTVSPost2010PropOp47
 70
     1
102
RTVSPost2010Prop48
 90
       50
102
RTVSPost2010PropOp48
 70
     1
102
RTVSPost2010Prop49
280
     0
102
RTVSPost2010PropOp49
 70
     1
102
RTVSPost2010Prop50
 90
       50
102
RTVSPost2010PropOp50
 70
     1
102
RTVSPost2010Prop51ColorIndex
 90
      256
102
RTVSPost2010Prop51ColorRGB
 90
-16777216
102
RTVSPost2010PropOp51
 70
     0
102
RTVSPost2010Prop52
140
1.0
102
RTVSPost2010PropOp52
 70
     0
102
RTVSPost2010Prop53
 90
        2
102
RTVSPost2010PropOp53
 70
     1
102
RTVSPost2010Prop54
  1
strokes_ogs.tif
102
RTVSPost2010PropOp54
 70
     1
102
RTVSPost2010Prop55
280
     0
102
RTVSPost2010PropOp55
 70
     1
102
RTVSPost2010Prop56
140
1.0
102
RTVSPost2010PropOp56
 70
     1
102
RTVSPost2010Prop57
140
1.0
102
RTVSPost2010PropOp57
 70
     1
  0
XRECORD
  5
12B
102
{ACAD_REACTORS
330
12A
102
}
330
12A
100
AcDbXrecord
280
     1
102
RTVSPost2010Prop28
280
     0
102
RTVSPost2010PropOp28
 70
     1
102
RTVSPost2010Prop29
280
     1
102
RTVSPost2010PropOp29
 70
     1
102
RTVSPost2010Prop30
280
     1
102
RTVSPost2010PropOp30
 70
     1
102
RTVSPost2010Prop31
280
     0
102
RTVSPost2010PropOp31
 70
     1
102
RTVSPost2010Prop32
280
     0
102
RTVSPost2010PropOp32
 70
     1
102
RTVSPost2010Prop33
280
     0
102
RTVSPost2010PropOp33
 70
     1
102
RTVSPost2010Prop34
280
     0
102
RTVSPost2010PropOp34
 70
     1
102
RTVSPost2010Prop35
280
     0
102
RTVSPost2010PropOp35
 70
     1
102
RTVSPost2010Prop36
280
     0
102
RTVSPost2010PropOp36
 70
     1
102
RTVSPost2010Prop37
 90
       50
102
RTVSPost2010PropOp37
 70
     1
102
RTVSPost2010Prop38
140
0.0
102
RTVSPost2010PropOp38
 70
     1
102
RTVSPost2010Prop39
140
1.0
102
RTVSPost2010PropOp39
 70
     1
102
RTVSPost2010Prop40
 90
        0
102
RTVSPost2010PropOp40
 70
     1
102
RTVSPost2010Prop41ColorIndex
 90
       18
102
RTVSPost2010Prop41ColorRGB
 90
        0
102
RTVSPost2010PropOp41
 70
     1
102
RTVSPost2010Prop42
 90
       50
102
RTVSPost2010PropOp42
 70
     1
102
RTVSPost2010Prop43
 90
        3
102
RTVSPost2010PropOp43
 70
     1
102
RTVSPost2010Prop44ColorIndex
 90
        5
102
RTVSPost2010Prop44ColorRGB
 90
      255
102
RTVSPost2010PropOp44
 70
     1
102
RTVSPost2010Prop45
280
     0
102
RTVSPost2010PropOp45
 70
     1
102
RTVSPost2010Prop46
 90
       50
102
RTVSPost2010PropOp46
 70
     1
102
RTVSPost2010Prop47
 90
       50
102
RTVSPost2010PropOp47
 70
     1
102
RTVSPost2010Prop48
 90
       50
102
RTVSPost2010PropOp48
 70
     1
102
RTVSPost2010Prop49
280
     0
102
RTVSPost2010PropOp49
 70
     1
102
RTVSPost2010Prop50
 90
       50
102
RTVSPost2010PropOp50
 70
     1
102
RTVSPost2010Prop51ColorIndex
 90
      256
102
RTVSPost2010Prop51ColorRGB
 90
-16777216
102
RTVSPost2010PropOp51
 70
     0
102
RTVSPost2010Prop52
140
1.0
102
RTVSPost2010PropOp52
 70
     0
102
RTVSPost2010Prop53
 90
        2
102
RTVSPost2010PropOp53
 70
     1
102
RTVSPost2010Prop54
  1
strokes_ogs.tif
102
RTVSPost2010PropOp54
 70
     1
102
RTVSPost2010Prop55
280
     0
102
RTVSPost2010PropOp55
 70
     1
102
RTVSPost2010Prop56
140
1.0
102
RTVSPost2010PropOp56
 70
     1
102
RTVSPost2010Prop57
140
1.0
102
RTVSPost2010PropOp57
 70
     1
  0
XRECORD
  5
11D
102
{ACAD_REACTORS
330
11C
102
}
330
11C
100
AcDbXrecord
280
     1
102
RTVSPost2010Prop28
280
     0
102
RTVSPost2010PropOp28
 70
     1
102
RTVSPost2010Prop29
280
     1
102
RTVSPost2010PropOp29
 70
     1
102
RTVSPost2010Prop30
280
     1
102
RTVSPost2010PropOp30
 70
     1
102
RTVSPost2010Prop31
280
     0
102
RTVSPost2010PropOp31
 70
     1
102
RTVSPost2010Prop32
280
     0
102
RTVSPost2010PropOp32
 70
     1
102
RTVSPost2010Prop33
280
     0
102
RTVSPost2010PropOp33
 70
     1
102
RTVSPost2010Prop34
280
     0
102
RTVSPost2010PropOp34
 70
     1
102
RTVSPost2010Prop35
280
     0
102
RTVSPost2010PropOp35
 70
     1
102
RTVSPost2010Prop36
280
     0
102
RTVSPost2010PropOp36
 70
     1
102
RTVSPost2010Prop37
 90
       50
102
RTVSPost2010PropOp37
 70
     1
102
RTVSPost2010Prop38
140
0.0
102
RTVSPost2010PropOp38
 70
     1
102
RTVSPost2010Prop39
140
1.0
102
RTVSPost2010PropOp39
 70
     1
102
RTVSPost2010Prop40
 90
        0
102
RTVSPost2010PropOp40
 70
     1
102
RTVSPost2010Prop41ColorIndex
 90
       18
102
RTVSPost2010Prop41ColorRGB
 90
        0
102
RTVSPost2010PropOp41
 70
     1
102
RTVSPost2010Prop42
 90
       50
102
RTVSPost2010PropOp42
 70
     1
102
RTVSPost2010Prop43
 90
        3
102
RTVSPost2010PropOp43
 70
     1
102
RTVSPost2010Prop44ColorIndex
 90
        5
102
RTVSPost2010Prop44ColorRGB
 90
      255
102
RTVSPost2010PropOp44
 70
     1
102
RTVSPost2010Prop45
280
     0
102
RTVSPost2010PropOp45
 70
     1
102
RTVSPost2010Prop46
 90
       50
102
RTVSPost2010PropOp46
 70
     1
102
RTVSPost2010Prop47
 90
       50
102
RTVSPost2010PropOp47
 70
     1
102
RTVSPost2010Prop48
 90
       50
102
RTVSPost2010PropOp48
 70
     1
102
RTVSPost2010Prop49
280
     0
102
RTVSPost2010PropOp49
 70
     1
102
RTVSPost2010Prop50
 90
       50
102
RTVSPost2010PropOp50
 70
     1
102
RTVSPost2010Prop51ColorIndex
 90
      256
102
RTVSPost2010Prop51ColorRGB
 90
-16777216
102
RTVSPost2010PropOp51
 70
     0
102
RTVSPost2010Prop52
140
1.0
102
RTVSPost2010PropOp52
 70
     0
102
RTVSPost2010Prop53
 90
        2
102
RTVSPost2010PropOp53
 70
     1
102
RTVSPost2010Prop54
  1
strokes_ogs.tif
102
RTVSPost2010PropOp54
 70
     1
102
RTVSPost2010Prop55
280
     0
102
RTVSPost2010PropOp55
 70
     1
102
RTVSPost2010Prop56
140
1.0
102
RTVSPost2010PropOp56
 70
     1
102
RTVSPost2010Prop57
140
1.0
102
RTVSPost2010PropOp57
 70
     1
  0
XRECORD
  5
121
102
{ACAD_REACTORS
330
120
102
}
330
120
100
AcDbXrecord
280
     1
102
RTVSPost2010Prop28
280
     0
102
RTVSPost2010PropOp28
 70
     1
102
RTVSPost2010Prop29
280
     1
102
RTVSPost2010PropOp29
 70
     1
102
RTVSPost2010Prop30
280
     1
102
RTVSPost2010PropOp30
 70
     1
102
RTVSPost2010Prop31
280
     0
102
RTVSPost2010PropOp31
 70
     1
102
RTVSPost2010Prop32
280
     0
102
RTVSPost2010PropOp32
 70
     1
102
RTVSPost2010Prop33
280
     0
102
RTVSPost2010PropOp33
 70
     1
102
RTVSPost2010Prop34
280
     0
102
RTVSPost2010PropOp34
 70
     1
102
RTVSPost2010Prop35
280
     0
102
RTVSPost2010PropOp35
 70
     1
102
RTVSPost2010Prop36
280
     0
102
RTVSPost2010PropOp36
 70
     1
102
RTVSPost2010Prop37
 90
       50
102
RTVSPost2010PropOp37
 70
     1
102
RTVSPost2010Prop38
140
0.0
102
RTVSPost2010PropOp38
 70
     1
102
RTVSPost2010Prop39
140
1.0
102
RTVSPost2010PropOp39
 70
     1
102
RTVSPost2010Prop40
 90
        0
102
RTVSPost2010PropOp40
 70
     1
102
RTVSPost2010Prop41ColorIndex
 90
       18
102
RTVSPost2010Prop41ColorRGB
 90
        0
102
RTVSPost2010PropOp41
 70
     1
102
RTVSPost2010Prop42
 90
       50
102
RTVSPost2010PropOp42
 70
     1
102
RTVSPost2010Prop43
 90
        3
102
RTVSPost2010PropOp43
 70
     1
102
RTVSPost2010Prop44ColorIndex
 90
        5
102
RTVSPost2010Prop44ColorRGB
 90
      255
102
RTVSPost2010PropOp44
 70
     1
102
RTVSPost2010Prop45
280
     0
102
RTVSPost2010PropOp45
 70
     1
102
RTVSPost2010Prop46
 90
       50
102
RTVSPost2010PropOp46
 70
     1
102
RTVSPost2010Prop47
 90
       50
102
RTVSPost2010PropOp47
 70
     1
102
RTVSPost2010Prop48
 90
       50
102
RTVSPost2010PropOp48
 70
     1
102
RTVSPost2010Prop49
280
     0
102
RTVSPost2010PropOp49
 70
     1
102
RTVSPost2010Prop50
 90
       50
102
RTVSPost2010PropOp50
 70
     1
102
RTVSPost2010Prop51ColorIndex
 90
      256
102
RTVSPost2010Prop51ColorRGB
 90
-16777216
102
RTVSPost2010PropOp51
 70
     0
102
RTVSPost2010Prop52
140
1.0
102
RTVSPost2010PropOp52
 70
     0
102
RTVSPost2010Prop53
 90
        2
102
RTVSPost2010PropOp53
 70
     1
102
RTVSPost2010Prop54
  1
strokes_ogs.tif
102
RTVSPost2010PropOp54
 70
     1
102
RTVSPost2010Prop55
280
     0
102
RTVSPost2010PropOp55
 70
     1
102
RTVSPost2010Prop56
140
1.0
102
RTVSPost2010PropOp56
 70
     1
102
RTVSPost2010Prop57
140
1.0
102
RTVSPost2010PropOp57
 70
     1
  0
XRECORD
  5
13B
102
{ACAD_REACTORS
330
13A
102
}
330
13A
100
AcDbXrecord
280
     1
102
RTVSPost2010Prop28
280
     0
102
RTVSPost2010PropOp28
 70
     0
102
RTVSPost2010Prop29
280
     1
102
RTVSPost2010PropOp29
 70
     0
102
RTVSPost2010Prop30
280
     1
102
RTVSPost2010PropOp30
 70
     0
102
RTVSPost2010Prop31
280
     0
102
RTVSPost2010PropOp31
 70
     0
102
RTVSPost2010Prop32
280
     0
102
RTVSPost2010PropOp32
 70
     0
102
RTVSPost2010Prop33
280
     0
102
RTVSPost2010PropOp33
 70
     0
102
RTVSPost2010Prop34
280
     0
102
RTVSPost2010PropOp34
 70
     0
102
RTVSPost2010Prop35
280
     0
102
RTVSPost2010PropOp35
 70
     0
102
RTVSPost2010Prop36
280
     0
102
RTVSPost2010PropOp36
 70
     0
102
RTVSPost2010Prop37
 90
       50
102
RTVSPost2010PropOp37
 70
     0
102
RTVSPost2010Prop38
140
0.0
102
RTVSPost2010PropOp38
 70
     0
102
RTVSPost2010Prop39
140
1.0
102
RTVSPost2010PropOp39
 70
     0
102
RTVSPost2010Prop40
 90
        0
102
RTVSPost2010PropOp40
 70
     0
102
RTVSPost2010Prop41ColorIndex
 90
       18
102
RTVSPost2010Prop41ColorRGB
 90
        0
102
RTVSPost2010PropOp41
 70
     0
102
RTVSPost2010Prop42
 90
       50
102
RTVSPost2010PropOp42
 70
     0
102
RTVSPost2010Prop43
 90
        3
102
RTVSPost2010PropOp43
 70
     0
102
RTVSPost2010Prop44ColorIndex
 90
        5
102
RTVSPost2010Prop44ColorRGB
 90
      255
102
RTVSPost2010PropOp44
 70
     0
102
RTVSPost2010Prop45
280
     0
102
RTVSPost2010PropOp45
 70
     0
102
RTVSPost2010Prop46
 90
       50
102
RTVSPost2010PropOp46
 70
     0
102
RTVSPost2010Prop47
 90
       50
102
RTVSPost2010PropOp47
 70
     0
102
RTVSPost2010Prop48
 90
       50
102
RTVSPost2010PropOp48
 70
     0
102
RTVSPost2010Prop49
280
     0
102
RTVSPost2010PropOp49
 70
     0
102
RTVSPost2010Prop50
 90
       50
102
RTVSPost2010PropOp50
 70
     0
102
RTVSPost2010Prop51ColorIndex
 90
      256
102
RTVSPost2010Prop51ColorRGB
 90
-16777216
102
RTVSPost2010PropOp51
 70
     0
102
RTVSPost2010Prop52
140
1.0
102
RTVSPost2010PropOp52
 70
     0
102
RTVSPost2010Prop53
 90
        2
102
RTVSPost2010PropOp53
 70
     0
102
RTVSPost2010Prop54
  1
strokes_ogs.tif
102
RTVSPost2010PropOp54
 70
     0
102
RTVSPost2010Prop55
280
     0
102
RTVSPost2010PropOp55
 70
     0
102
RTVSPost2010Prop56
140
1.0
102
RTVSPost2010PropOp56
 70
     0
102
RTVSPost2010Prop57
140
1.0
102
RTVSPost2010PropOp57
 70
     0
  0
XRECORD
  5
129
102
{ACAD_REACTORS
330
128
102
}
330
128
100
AcDbXrecord
280
     1
102
RTVSPost2010Prop28
280
     0
102
RTVSPost2010PropOp28
 70
     1
102
RTVSPost2010Prop29
280
     1
102
RTVSPost2010PropOp29
 70
     1
102
RTVSPost2010Prop30
280
     1
102
RTVSPost2010PropOp30
 70
     1
102
RTVSPost2010Prop31
280
     0
102
RTVSPost2010PropOp31
 70
     1
102
RTVSPost2010Prop32
280
     0
102
RTVSPost2010PropOp32
 70
     1
102
RTVSPost2010Prop33
280
     0
102
RTVSPost2010PropOp33
 70
     1
102
RTVSPost2010Prop34
280
     0
102
RTVSPost2010PropOp34
 70
     1
102
RTVSPost2010Prop35
280
     0
102
RTVSPost2010PropOp35
 70
     1
102
RTVSPost2010Prop36
280
     0
102
RTVSPost2010PropOp36
 70
     1
102
RTVSPost2010Prop37
 90
       50
102
RTVSPost2010PropOp37
 70
     1
102
RTVSPost2010Prop38
140
0.0
102
RTVSPost2010PropOp38
 70
     1
102
RTVSPost2010Prop39
140
1.0
102
RTVSPost2010PropOp39
 70
     1
102
RTVSPost2010Prop40
 90
        0
102
RTVSPost2010PropOp40
 70
     1
102
RTVSPost2010Prop41ColorIndex
 90
       18
102
RTVSPost2010Prop41ColorRGB
 90
        0
102
RTVSPost2010PropOp41
 70
     1
102
RTVSPost2010Prop42
 90
       50
102
RTVSPost2010PropOp42
 70
     1
102
RTVSPost2010Prop43
 90
        3
102
RTVSPost2010PropOp43
 70
     1
102
RTVSPost2010Prop44ColorIndex
 90
        5
102
RTVSPost2010Prop44ColorRGB
 90
      255
102
RTVSPost2010PropOp44
 70
     1
102
RTVSPost2010Prop45
280
     0
102
RTVSPost2010PropOp45
 70
     1
102
RTVSPost2010Prop46
 90
       50
102
RTVSPost2010PropOp46
 70
     1
102
RTVSPost2010Prop47
 90
       50
102
RTVSPost2010PropOp47
 70
     1
102
RTVSPost2010Prop48
 90
       50
102
RTVSPost2010PropOp48
 70
     1
102
RTVSPost2010Prop49
280
     0
102
RTVSPost2010PropOp49
 70
     1
102
RTVSPost2010Prop50
 90
       50
102
RTVSPost2010PropOp50
 70
     1
102
RTVSPost2010Prop51ColorIndex
 90
      256
102
RTVSPost2010Prop51ColorRGB
 90
-16777216
102
RTVSPost2010PropOp51
 70
     0
102
RTVSPost2010Prop52
140
1.0
102
RTVSPost2010PropOp52
 70
     0
102
RTVSPost2010Prop53
 90
        2
102
RTVSPost2010PropOp53
 70
     1
102
RTVSPost2010Prop54
  1
strokes_ogs.tif
102
RTVSPost2010PropOp54
 70
     1
102
RTVSPost2010Prop55
280
     0
102
RTVSPost2010PropOp55
 70
     1
102
RTVSPost2010Prop56
140
1.0
102
RTVSPost2010PropOp56
 70
     1
102
RTVSPost2010Prop57
140
1.0
102
RTVSPost2010PropOp57
 70
     1
  0
XRECORD
  5
10D
102
{ACAD_REACTORS
330
10C
102
}
330
10C
100
AcDbXrecord
280
     1
102
RTVSPost2010Prop28
280
     0
102
RTVSPost2010PropOp28
 70
     1
102
RTVSPost2010Prop29
280
     1
102
RTVSPost2010PropOp29
 70
     1
102
RTVSPost2010Prop30
280
     1
102
RTVSPost2010PropOp30
 70
     1
102
RTVSPost2010Prop31
280
     0
102
RTVSPost2010PropOp31
 70
     1
102
RTVSPost2010Prop32
280
     0
102
RTVSPost2010PropOp32
 70
     1
102
RTVSPost2010Prop33
280
     0
102
RTVSPost2010PropOp33
 70
     1
102
RTVSPost2010Prop34
280
     0
102
RTVSPost2010PropOp34
 70
     1
102
RTVSPost2010Prop35
280
     0
102
RTVSPost2010PropOp35
 70
     1
102
RTVSPost2010Prop36
280
     0
102
RTVSPost2010PropOp36
 70
     1
102
RTVSPost2010Prop37
 90
       50
102
RTVSPost2010PropOp37
 70
     1
102
RTVSPost2010Prop38
140
0.0
102
RTVSPost2010PropOp38
 70
     1
102
RTVSPost2010Prop39
140
1.0
102
RTVSPost2010PropOp39
 70
     1
102
RTVSPost2010Prop40
 90
        0
102
RTVSPost2010PropOp40
 70
     1
102
RTVSPost2010Prop41ColorIndex
 90
       18
102
RTVSPost2010Prop41ColorRGB
 90
        0
102
RTVSPost2010PropOp41
 70
     1
102
RTVSPost2010Prop42
 90
       50
102
RTVSPost2010PropOp42
 70
     1
102
RTVSPost2010Prop43
 90
        3
102
RTVSPost2010PropOp43
 70
     1
102
RTVSPost2010Prop44ColorIndex
 90
        5
102
RTVSPost2010Prop44ColorRGB
 90
      255
102
RTVSPost2010PropOp44
 70
     1
102
RTVSPost2010Prop45
280
     0
102
RTVSPost2010PropOp45
 70
     1
102
RTVSPost2010Prop46
 90
       50
102
RTVSPost2010PropOp46
 70
     1
102
RTVSPost2010Prop47
 90
       50
102
RTVSPost2010PropOp47
 70
     1
102
RTVSPost2010Prop48
 90
       50
102
RTVSPost2010PropOp48
 70
     1
102
RTVSPost2010Prop49
280
     0
102
RTVSPost2010PropOp49
 70
     1
102
RTVSPost2010Prop50
 90
       50
102
RTVSPost2010PropOp50
 70
     1
102
RTVSPost2010Prop51ColorIndex
 90
      256
102
RTVSPost2010Prop51ColorRGB
 90
-16777216
102
RTVSPost2010PropOp51
 70
     0
102
RTVSPost2010Prop52
140
1.0
102
RTVSPost2010PropOp52
 70
     0
102
RTVSPost2010Prop53
 90
        2
102
RTVSPost2010PropOp53
 70
     1
102
RTVSPost2010Prop54
  1
strokes_ogs.tif
102
RTVSPost2010PropOp54
 70
     1
102
RTVSPost2010Prop55
280
     0
102
RTVSPost2010PropOp55
 70
     1
102
RTVSPost2010Prop56
140
1.0
102
RTVSPost2010PropOp56
 70
     1
102
RTVSPost2010Prop57
140
1.0
102
RTVSPost2010PropOp57
 70
     1
  0
XRECORD
  5
10F
102
{ACAD_REACTORS
330
10E
102
}
330
10E
100
AcDbXrecord
280
     1
102
RTVSPost2010Prop28
280
     0
102
RTVSPost2010PropOp28
 70
     1
102
RTVSPost2010Prop29
280
     1
102
RTVSPost2010PropOp29
 70
     1
102
RTVSPost2010Prop30
280
     1
102
RTVSPost2010PropOp30
 70
     1
102
RTVSPost2010Prop31
280
     0
102
RTVSPost2010PropOp31
 70
     1
102
RTVSPost2010Prop32
280
     0
102
RTVSPost2010PropOp32
 70
     1
102
RTVSPost2010Prop33
280
     0
102
RTVSPost2010PropOp33
 70
     1
102
RTVSPost2010Prop34
280
     0
102
RTVSPost2010PropOp34
 70
     1
102
RTVSPost2010Prop35
280
     0
102
RTVSPost2010PropOp35
 70
     1
102
RTVSPost2010Prop36
280
     0
102
RTVSPost2010PropOp36
 70
     1
102
RTVSPost2010Prop37
 90
       50
102
RTVSPost2010PropOp37
 70
     1
102
RTVSPost2010Prop38
140
0.0
102
RTVSPost2010PropOp38
 70
     1
102
RTVSPost2010Prop39
140
1.0
102
RTVSPost2010PropOp39
 70
     1
102
RTVSPost2010Prop40
 90
        0
102
RTVSPost2010PropOp40
 70
     1
102
RTVSPost2010Prop41ColorIndex
 90
       18
102
RTVSPost2010Prop41ColorRGB
 90
        0
102
RTVSPost2010PropOp41
 70
     1
102
RTVSPost2010Prop42
 90
       50
102
RTVSPost2010PropOp42
 70
     1
102
RTVSPost2010Prop43
 90
        3
102
RTVSPost2010PropOp43
 70
     1
102
RTVSPost2010Prop44ColorIndex
 90
        5
102
RTVSPost2010Prop44ColorRGB
 90
      255
102
RTVSPost2010PropOp44
 70
     1
102
RTVSPost2010Prop45
280
     0
102
RTVSPost2010PropOp45
 70
     1
102
RTVSPost2010Prop46
 90
       50
102
RTVSPost2010PropOp46
 70
     1
102
RTVSPost2010Prop47
 90
       50
102
RTVSPost2010PropOp47
 70
     1
102
RTVSPost2010Prop48
 90
       50
102
RTVSPost2010PropOp48
 70
     1
102
RTVSPost2010Prop49
280
     0
102
RTVSPost2010PropOp49
 70
     1
102
RTVSPost2010Prop50
 90
       50
102
RTVSPost2010PropOp50
 70
     1
102
RTVSPost2010Prop51ColorIndex
 90
      256
102
RTVSPost2010Prop51ColorRGB
 90
-16777216
102
RTVSPost2010PropOp51
 70
     0
102
RTVSPost2010Prop52
140
1.0
102
RTVSPost2010PropOp52
 70
     0
102
RTVSPost2010Prop53
 90
        2
102
RTVSPost2010PropOp53
 70
     1
102
RTVSPost2010Prop54
  1
strokes_ogs.tif
102
RTVSPost2010PropOp54
 70
     1
102
RTVSPost2010Prop55
280
     0
102
RTVSPost2010PropOp55
 70
     1
102
RTVSPost2010Prop56
140
1.0
102
RTVSPost2010PropOp56
 70
     1
102
RTVSPost2010Prop57
140
1.0
102
RTVSPost2010PropOp57
 70
     1
  0
XRECORD
  5
111
102
{ACAD_REACTORS
330
110
102
}
330
110
100
AcDbXrecord
280
     1
102
RTVSPost2010Prop28
280
     0
102
RTVSPost2010PropOp28
 70
     1
102
RTVSPost2010Prop29
280
     1
102
RTVSPost2010PropOp29
 70
     1
102
RTVSPost2010Prop30
280
     1
102
RTVSPost2010PropOp30
 70
     1
102
RTVSPost2010Prop31
280
     0
102
RTVSPost2010PropOp31
 70
     1
102
RTVSPost2010Prop32
280
     0
102
RTVSPost2010PropOp32
 70
     1
102
RTVSPost2010Prop33
280
     0
102
RTVSPost2010PropOp33
 70
     1
102
RTVSPost2010Prop34
280
     0
102
RTVSPost2010PropOp34
 70
     1
102
RTVSPost2010Prop35
280
     0
102
RTVSPost2010PropOp35
 70
     1
102
RTVSPost2010Prop36
280
     0
102
RTVSPost2010PropOp36
 70
     1
102
RTVSPost2010Prop37
 90
       50
102
RTVSPost2010PropOp37
 70
     1
102
RTVSPost2010Prop38
140
0.0
102
RTVSPost2010PropOp38
 70
     1
102
RTVSPost2010Prop39
140
1.0
102
RTVSPost2010PropOp39
 70
     1
102
RTVSPost2010Prop40
 90
        0
102
RTVSPost2010PropOp40
 70
     1
102
RTVSPost2010Prop41ColorIndex
 90
       18
102
RTVSPost2010Prop41ColorRGB
 90
        0
102
RTVSPost2010PropOp41
 70
     1
102
RTVSPost2010Prop42
 90
       50
102
RTVSPost2010PropOp42
 70
     1
102
RTVSPost2010Prop43
 90
        3
102
RTVSPost2010PropOp43
 70
     1
102
RTVSPost2010Prop44ColorIndex
 90
        5
102
RTVSPost2010Prop44ColorRGB
 90
      255
102
RTVSPost2010PropOp44
 70
     1
102
RTVSPost2010Prop45
280
     0
102
RTVSPost2010PropOp45
 70
     1
102
RTVSPost2010Prop46
 90
       50
102
RTVSPost2010PropOp46
 70
     1
102
RTVSPost2010Prop47
 90
       50
102
RTVSPost2010PropOp47
 70
     1
102
RTVSPost2010Prop48
 90
       50
102
RTVSPost2010PropOp48
 70
     1
102
RTVSPost2010Prop49
280
     0
102
RTVSPost2010PropOp49
 70
     1
102
RTVSPost2010Prop50
 90
       50
102
RTVSPost2010PropOp50
 70
     1
102
RTVSPost2010Prop51ColorIndex
 90
      256
102
RTVSPost2010Prop51ColorRGB
 90
-16777216
102
RTVSPost2010PropOp51
 70
     0
102
RTVSPost2010Prop52
140
1.0
102
RTVSPost2010PropOp52
 70
     0
102
RTVSPost2010Prop53
 90
        2
102
RTVSPost2010PropOp53
 70
     1
102
RTVSPost2010Prop54
  1
strokes_ogs.tif
102
RTVSPost2010PropOp54
 70
     1
102
RTVSPost2010Prop55
280
     0
102
RTVSPost2010PropOp55
 70
     1
102
RTVSPost2010Prop56
140
1.0
102
RTVSPost2010PropOp56
 70
     1
102
RTVSPost2010Prop57
140
1.0
102
RTVSPost2010PropOp57
 70
     1
  0
XRECORD
  5
113
102
{ACAD_REACTORS
330
112
102
}
330
112
100
AcDbXrecord
280
     1
102
RTVSPost2010Prop28
280
     0
102
RTVSPost2010PropOp28
 70
     1
102
RTVSPost2010Prop29
280
     1
102
RTVSPost2010PropOp29
 70
     1
102
RTVSPost2010Prop30
280
     1
102
RTVSPost2010PropOp30
 70
     1
102
RTVSPost2010Prop31
280
     0
102
RTVSPost2010PropOp31
 70
     1
102
RTVSPost2010Prop32
280
     0
102
RTVSPost2010PropOp32
 70
     1
102
RTVSPost2010Prop33
280
     0
102
RTVSPost2010PropOp33
 70
     1
102
RTVSPost2010Prop34
280
     0
102
RTVSPost2010PropOp34
 70
     1
102
RTVSPost2010Prop35
280
     0
102
RTVSPost2010PropOp35
 70
     1
102
RTVSPost2010Prop36
280
     0
102
RTVSPost2010PropOp36
 70
     1
102
RTVSPost2010Prop37
 90
       50
102
RTVSPost2010PropOp37
 70
     1
102
RTVSPost2010Prop38
140
0.0
102
RTVSPost2010PropOp38
 70
     1
102
RTVSPost2010Prop39
140
1.0
102
RTVSPost2010PropOp39
 70
     1
102
RTVSPost2010Prop40
 90
        0
102
RTVSPost2010PropOp40
 70
     1
102
RTVSPost2010Prop41ColorIndex
 90
       18
102
RTVSPost2010Prop41ColorRGB
 90
        0
102
RTVSPost2010PropOp41
 70
     1
102
RTVSPost2010Prop42
 90
       50
102
RTVSPost2010PropOp42
 70
     1
102
RTVSPost2010Prop43
 90
        3
102
RTVSPost2010PropOp43
 70
     1
102
RTVSPost2010Prop44ColorIndex
 90
        5
102
RTVSPost2010Prop44ColorRGB
 90
      255
102
RTVSPost2010PropOp44
 70
     1
102
RTVSPost2010Prop45
280
     0
102
RTVSPost2010PropOp45
 70
     1
102
RTVSPost2010Prop46
 90
       50
102
RTVSPost2010PropOp46
 70
     1
102
RTVSPost2010Prop47
 90
       50
102
RTVSPost2010PropOp47
 70
     1
102
RTVSPost2010Prop48
 90
       50
102
RTVSPost2010PropOp48
 70
     1
102
RTVSPost2010Prop49
280
     0
102
RTVSPost2010PropOp49
 70
     1
102
RTVSPost2010Prop50
 90
       50
102
RTVSPost2010PropOp50
 70
     1
102
RTVSPost2010Prop51ColorIndex
 90
      256
102
RTVSPost2010Prop51ColorRGB
 90
-16777216
102
RTVSPost2010PropOp51
 70
     0
102
RTVSPost2010Prop52
140
1.0
102
RTVSPost2010PropOp52
 70
     0
102
RTVSPost2010Prop53
 90
        2
102
RTVSPost2010PropOp53
 70
     1
102
RTVSPost2010Prop54
  1
strokes_ogs.tif
102
RTVSPost2010PropOp54
 70
     1
102
RTVSPost2010Prop55
280
     0
102
RTVSPost2010PropOp55
 70
     1
102
RTVSPost2010Prop56
140
1.0
102
RTVSPost2010PropOp56
 70
     1
102
RTVSPost2010Prop57
140
1.0
102
RTVSPost2010PropOp57
 70
     1
  0
XRECORD
  5
11B
102
{ACAD_REACTORS
330
11A
102
}
330
11A
100
AcDbXrecord
280
     1
102
RTVSPost2010Prop28
280
     0
102
RTVSPost2010PropOp28
 70
     1
102
RTVSPost2010Prop29
280
     1
102
RTVSPost2010PropOp29
 70
     1
102
RTVSPost2010Prop30
280
     1
102
RTVSPost2010PropOp30
 70
     1
102
RTVSPost2010Prop31
280
     0
102
RTVSPost2010PropOp31
 70
     1
102
RTVSPost2010Prop32
280
     0
102
RTVSPost2010PropOp32
 70
     1
102
RTVSPost2010Prop33
280
     0
102
RTVSPost2010PropOp33
 70
     1
102
RTVSPost2010Prop34
280
     0
102
RTVSPost2010PropOp34
 70
     1
102
RTVSPost2010Prop35
280
     0
102
RTVSPost2010PropOp35
 70
     1
102
RTVSPost2010Prop36
280
     0
102
RTVSPost2010PropOp36
 70
     1
102
RTVSPost2010Prop37
 90
       50
102
RTVSPost2010PropOp37
 70
     1
102
RTVSPost2010Prop38
140
0.0
102
RTVSPost2010PropOp38
 70
     1
102
RTVSPost2010Prop39
140
1.0
102
RTVSPost2010PropOp39
 70
     1
102
RTVSPost2010Prop40
 90
        0
102
RTVSPost2010PropOp40
 70
     1
102
RTVSPost2010Prop41ColorIndex
 90
       18
102
RTVSPost2010Prop41ColorRGB
 90
        0
102
RTVSPost2010PropOp41
 70
     1
102
RTVSPost2010Prop42
 90
       50
102
RTVSPost2010PropOp42
 70
     1
102
RTVSPost2010Prop43
 90
        3
102
RTVSPost2010PropOp43
 70
     1
102
RTVSPost2010Prop44ColorIndex
 90
        5
102
RTVSPost2010Prop44ColorRGB
 90
      255
102
RTVSPost2010PropOp44
 70
     1
102
RTVSPost2010Prop45
280
     0
102
RTVSPost2010PropOp45
 70
     1
102
RTVSPost2010Prop46
 90
       50
102
RTVSPost2010PropOp46
 70
     1
102
RTVSPost2010Prop47
 90
       50
102
RTVSPost2010PropOp47
 70
     1
102
RTVSPost2010Prop48
 90
       50
102
RTVSPost2010PropOp48
 70
     1
102
RTVSPost2010Prop49
280
     0
102
RTVSPost2010PropOp49
 70
     1
102
RTVSPost2010Prop50
 90
       50
102
RTVSPost2010PropOp50
 70
     1
102
RTVSPost2010Prop51ColorIndex
 90
      256
102
RTVSPost2010Prop51ColorRGB
 90
-16777216
102
RTVSPost2010PropOp51
 70
     0
102
RTVSPost2010Prop52
140
1.0
102
RTVSPost2010PropOp52
 70
     0
102
RTVSPost2010Prop53
 90
        2
102
RTVSPost2010PropOp53
 70
     1
102
RTVSPost2010Prop54
  1
strokes_ogs.tif
102
RTVSPost2010PropOp54
 70
     1
102
RTVSPost2010Prop55
280
     0
102
RTVSPost2010PropOp55
 70
     1
102
RTVSPost2010Prop56
140
1.0
102
RTVSPost2010PropOp56
 70
     1
102
RTVSPost2010Prop57
140
1.0
102
RTVSPost2010PropOp57
 70
     1
  0
XRECORD
  5
137
102
{ACAD_REACTORS
330
136
102
}
330
136
100
AcDbXrecord
280
     1
102
RTVSPost2010Prop28
280
     0
102
RTVSPost2010PropOp28
 70
     0
102
RTVSPost2010Prop29
280
     1
102
RTVSPost2010PropOp29
 70
     0
102
RTVSPost2010Prop30
280
     1
102
RTVSPost2010PropOp30
 70
     0
102
RTVSPost2010Prop31
280
     0
102
RTVSPost2010PropOp31
 70
     0
102
RTVSPost2010Prop32
280
     0
102
RTVSPost2010PropOp32
 70
     0
102
RTVSPost2010Prop33
280
     0
102
RTVSPost2010PropOp33
 70
     0
102
RTVSPost2010Prop34
280
     0
102
RTVSPost2010PropOp34
 70
     0
102
RTVSPost2010Prop35
280
     0
102
RTVSPost2010PropOp35
 70
     0
102
RTVSPost2010Prop36
280
     0
102
RTVSPost2010PropOp36
 70
     0
102
RTVSPost2010Prop37
 90
       50
102
RTVSPost2010PropOp37
 70
     0
102
RTVSPost2010Prop38
140
0.0
102
RTVSPost2010PropOp38
 70
     0
102
RTVSPost2010Prop39
140
1.0
102
RTVSPost2010PropOp39
 70
     0
102
RTVSPost2010Prop40
 90
        0
102
RTVSPost2010PropOp40
 70
     0
102
RTVSPost2010Prop41ColorIndex
 90
       18
102
RTVSPost2010Prop41ColorRGB
 90
        0
102
RTVSPost2010PropOp41
 70
     0
102
RTVSPost2010Prop42
 90
       50
102
RTVSPost2010PropOp42
 70
     0
102
RTVSPost2010Prop43
 90
        3
102
RTVSPost2010PropOp43
 70
     0
102
RTVSPost2010Prop44ColorIndex
 90
        5
102
RTVSPost2010Prop44ColorRGB
 90
      255
102
RTVSPost2010PropOp44
 70
     0
102
RTVSPost2010Prop45
280
     0
102
RTVSPost2010PropOp45
 70
     0
102
RTVSPost2010Prop46
 90
       50
102
RTVSPost2010PropOp46
 70
     0
102
RTVSPost2010Prop47
 90
       50
102
RTVSPost2010PropOp47
 70
     0
102
RTVSPost2010Prop48
 90
       50
102
RTVSPost2010PropOp48
 70
     0
102
RTVSPost2010Prop49
280
     0
102
RTVSPost2010PropOp49
 70
     0
102
RTVSPost2010Prop50
 90
       50
102
RTVSPost2010PropOp50
 70
     0
102
RTVSPost2010Prop51ColorIndex
 90
      256
102
RTVSPost2010Prop51ColorRGB
 90
-16777216
102
RTVSPost2010PropOp51
 70
     0
102
RTVSPost2010Prop52
140
1.0
102
RTVSPost2010PropOp52
 70
     0
102
RTVSPost2010Prop53
 90
        2
102
RTVSPost2010PropOp53
 70
     0
102
RTVSPost2010Prop54
  1
strokes_ogs.tif
102
RTVSPost2010PropOp54
 70
     0
102
RTVSPost2010Prop55
280
     0
102
RTVSPost2010PropOp55
 70
     0
102
RTVSPost2010Prop56
140
1.0
102
RTVSPost2010PropOp56
 70
     0
102
RTVSPost2010Prop57
140
1.0
102
RTVSPost2010PropOp57
 70
     0
  0
XRECORD
  5
127
102
{ACAD_REACTORS
330
126
102
}
330
126
100
AcDbXrecord
280
     1
102
RTVSPost2010Prop28
280
     0
102
RTVSPost2010PropOp28
 70
     1
102
RTVSPost2010Prop29
280
     1
102
RTVSPost2010PropOp29
 70
     1
102
RTVSPost2010Prop30
280
     1
102
RTVSPost2010PropOp30
 70
     1
102
RTVSPost2010Prop31
280
     0
102
RTVSPost2010PropOp31
 70
     1
102
RTVSPost2010Prop32
280
     0
102
RTVSPost2010PropOp32
 70
     1
102
RTVSPost2010Prop33
280
     0
102
RTVSPost2010PropOp33
 70
     1
102
RTVSPost2010Prop34
280
     0
102
RTVSPost2010PropOp34
 70
     1
102
RTVSPost2010Prop35
280
     0
102
RTVSPost2010PropOp35
 70
     1
102
RTVSPost2010Prop36
280
     0
102
RTVSPost2010PropOp36
 70
     1
102
RTVSPost2010Prop37
 90
       50
102
RTVSPost2010PropOp37
 70
     1
102
RTVSPost2010Prop38
140
0.0
102
RTVSPost2010PropOp38
 70
     1
102
RTVSPost2010Prop39
140
1.0
102
RTVSPost2010PropOp39
 70
     1
102
RTVSPost2010Prop40
 90
        0
102
RTVSPost2010PropOp40
 70
     1
102
RTVSPost2010Prop41ColorIndex
 90
       18
102
RTVSPost2010Prop41ColorRGB
 90
        0
102
RTVSPost2010PropOp41
 70
     1
102
RTVSPost2010Prop42
 90
       50
102
RTVSPost2010PropOp42
 70
     1
102
RTVSPost2010Prop43
 90
        3
102
RTVSPost2010PropOp43
 70
     1
102
RTVSPost2010Prop44ColorIndex
 90
        5
102
RTVSPost2010Prop44ColorRGB
 90
      255
102
RTVSPost2010PropOp44
 70
     1
102
RTVSPost2010Prop45
280
     0
102
RTVSPost2010PropOp45
 70
     1
102
RTVSPost2010Prop46
 90
       50
102
RTVSPost2010PropOp46
 70
     1
102
RTVSPost2010Prop47
 90
       50
102
RTVSPost2010PropOp47
 70
     1
102
RTVSPost2010Prop48
 90
       50
102
RTVSPost2010PropOp48
 70
     1
102
RTVSPost2010Prop49
280
     0
102
RTVSPost2010PropOp49
 70
     1
102
RTVSPost2010Prop50
 90
       50
102
RTVSPost2010PropOp50
 70
     1
102
RTVSPost2010Prop51ColorIndex
 90
      256
102
RTVSPost2010Prop51ColorRGB
 90
-16777216
102
RTVSPost2010PropOp51
 70
     0
102
RTVSPost2010Prop52
140
1.0
102
RTVSPost2010PropOp52
 70
     0
102
RTVSPost2010Prop53
 90
        2
102
RTVSPost2010PropOp53
 70
     1
102
RTVSPost2010Prop54
  1
strokes_ogs.tif
102
RTVSPost2010PropOp54
 70
     1
102
RTVSPost2010Prop55
280
     0
102
RTVSPost2010PropOp55
 70
     1
102
RTVSPost2010Prop56
140
1.0
102
RTVSPost2010PropOp56
 70
     1
102
RTVSPost2010Prop57
140
1.0
102
RTVSPost2010PropOp57
 70
     1
  0
XRECORD
  5
139
102
{ACAD_REACTORS
330
138
102
}
330
138
100
AcDbXrecord
280
     1
102
RTVSPost2010Prop28
280
     0
102
RTVSPost2010PropOp28
 70
     0
102
RTVSPost2010Prop29
280
     1
102
RTVSPost2010PropOp29
 70
     0
102
RTVSPost2010Prop30
280
     1
102
RTVSPost2010PropOp30
 70
     0
102
RTVSPost2010Prop31
280
     0
102
RTVSPost2010PropOp31
 70
     0
102
RTVSPost2010Prop32
280
     0
102
RTVSPost2010PropOp32
 70
     0
102
RTVSPost2010Prop33
280
     0
102
RTVSPost2010PropOp33
 70
     0
102
RTVSPost2010Prop34
280
     0
102
RTVSPost2010PropOp34
 70
     0
102
RTVSPost2010Prop35
280
     0
102
RTVSPost2010PropOp35
 70
     0
102
RTVSPost2010Prop36
280
     0
102
RTVSPost2010PropOp36
 70
     0
102
RTVSPost2010Prop37
 90
       50
102
RTVSPost2010PropOp37
 70
     0
102
RTVSPost2010Prop38
140
0.0
102
RTVSPost2010PropOp38
 70
     0
102
RTVSPost2010Prop39
140
1.0
102
RTVSPost2010PropOp39
 70
     0
102
RTVSPost2010Prop40
 90
        0
102
RTVSPost2010PropOp40
 70
     0
102
RTVSPost2010Prop41ColorIndex
 90
       18
102
RTVSPost2010Prop41ColorRGB
 90
        0
102
RTVSPost2010PropOp41
 70
     0
102
RTVSPost2010Prop42
 90
       50
102
RTVSPost2010PropOp42
 70
     0
102
RTVSPost2010Prop43
 90
        3
102
RTVSPost2010PropOp43
 70
     0
102
RTVSPost2010Prop44ColorIndex
 90
        5
102
RTVSPost2010Prop44ColorRGB
 90
      255
102
RTVSPost2010PropOp44
 70
     0
102
RTVSPost2010Prop45
280
     0
102
RTVSPost2010PropOp45
 70
     0
102
RTVSPost2010Prop46
 90
       50
102
RTVSPost2010PropOp46
 70
     0
102
RTVSPost2010Prop47
 90
       50
102
RTVSPost2010PropOp47
 70
     0
102
RTVSPost2010Prop48
 90
       50
102
RTVSPost2010PropOp48
 70
     0
102
RTVSPost2010Prop49
280
     0
102
RTVSPost2010PropOp49
 70
     0
102
RTVSPost2010Prop50
 90
       50
102
RTVSPost2010PropOp50
 70
     0
102
RTVSPost2010Prop51ColorIndex
 90
      256
102
RTVSPost2010Prop51ColorRGB
 90
-16777216
102
RTVSPost2010PropOp51
 70
     0
102
RTVSPost2010Prop52
140
1.0
102
RTVSPost2010PropOp52
 70
     0
102
RTVSPost2010Prop53
 90
        2
102
RTVSPost2010PropOp53
 70
     0
102
RTVSPost2010Prop54
  1
strokes_ogs.tif
102
RTVSPost2010PropOp54
 70
     0
102
RTVSPost2010Prop55
280
     0
102
RTVSPost2010PropOp55
 70
     0
102
RTVSPost2010Prop56
140
1.0
102
RTVSPost2010PropOp56
 70
     0
102
RTVSPost2010Prop57
140
1.0
102
RTVSPost2010PropOp57
 70
     0
  0
XRECORD
  5
11F
102
{ACAD_REACTORS
330
11E
102
}
330
11E
100
AcDbXrecord
280
     1
102
RTVSPost2010Prop28
280
     0
102
RTVSPost2010PropOp28
 70
     1
102
RTVSPost2010Prop29
280
     1
102
RTVSPost2010PropOp29
 70
     1
102
RTVSPost2010Prop30
280
     1
102
RTVSPost2010PropOp30
 70
     1
102
RTVSPost2010Prop31
280
     0
102
RTVSPost2010PropOp31
 70
     1
102
RTVSPost2010Prop32
280
     0
102
RTVSPost2010PropOp32
 70
     1
102
RTVSPost2010Prop33
280
     0
102
RTVSPost2010PropOp33
 70
     1
102
RTVSPost2010Prop34
280
     0
102
RTVSPost2010PropOp34
 70
     1
102
RTVSPost2010Prop35
280
     0
102
RTVSPost2010PropOp35
 70
     1
102
RTVSPost2010Prop36
280
     0
102
RTVSPost2010PropOp36
 70
     1
102
RTVSPost2010Prop37
 90
       50
102
RTVSPost2010PropOp37
 70
     1
102
RTVSPost2010Prop38
140
0.0
102
RTVSPost2010PropOp38
 70
     1
102
RTVSPost2010Prop39
140
1.0
102
RTVSPost2010PropOp39
 70
     1
102
RTVSPost2010Prop40
 90
        0
102
RTVSPost2010PropOp40
 70
     1
102
RTVSPost2010Prop41ColorIndex
 90
       18
102
RTVSPost2010Prop41ColorRGB
 90
        0
102
RTVSPost2010PropOp41
 70
     1
102
RTVSPost2010Prop42
 90
       50
102
RTVSPost2010PropOp42
 70
     1
102
RTVSPost2010Prop43
 90
        3
102
RTVSPost2010PropOp43
 70
     1
102
RTVSPost2010Prop44ColorIndex
 90
        5
102
RTVSPost2010Prop44ColorRGB
 90
      255
102
RTVSPost2010PropOp44
 70
     1
102
RTVSPost2010Prop45
280
     0
102
RTVSPost2010PropOp45
 70
     1
102
RTVSPost2010Prop46
 90
       50
102
RTVSPost2010PropOp46
 70
     1
102
RTVSPost2010Prop47
 90
       50
102
RTVSPost2010PropOp47
 70
     1
102
RTVSPost2010Prop48
 90
       50
102
RTVSPost2010PropOp48
 70
     1
102
RTVSPost2010Prop49
280
     0
102
RTVSPost2010PropOp49
 70
     1
102
RTVSPost2010Prop50
 90
       50
102
RTVSPost2010PropOp50
 70
     1
102
RTVSPost2010Prop51ColorIndex
 90
      256
102
RTVSPost2010Prop51ColorRGB
 90
-16777216
102
RTVSPost2010PropOp51
 70
     0
102
RTVSPost2010Prop52
140
1.0
102
RTVSPost2010PropOp52
 70
     0
102
RTVSPost2010Prop53
 90
        2
102
RTVSPost2010PropOp53
 70
     1
102
RTVSPost2010Prop54
  1
strokes_ogs.tif
102
RTVSPost2010PropOp54
 70
     1
102
RTVSPost2010Prop55
280
     0
102
RTVSPost2010PropOp55
 70
     1
102
RTVSPost2010Prop56
140
1.0
102
RTVSPost2010PropOp56
 70
     1
102
RTVSPost2010Prop57
140
1.0
102
RTVSPost2010PropOp57
 70
     1
  0
XRECORD
  5
135
102
{ACAD_REACTORS
330
134
102
}
330
134
100
AcDbXrecord
280
     1
102
RTVSPost2010Prop28
280
     0
102
RTVSPost2010PropOp28
 70
     1
102
RTVSPost2010Prop29
280
     1
102
RTVSPost2010PropOp29
 70
     1
102
RTVSPost2010Prop30
280
     1
102
RTVSPost2010PropOp30
 70
     1
102
RTVSPost2010Prop31
280
     0
102
RTVSPost2010PropOp31
 70
     1
102
RTVSPost2010Prop32
280
     0
102
RTVSPost2010PropOp32
 70
     1
102
RTVSPost2010Prop33
280
     0
102
RTVSPost2010PropOp33
 70
     1
102
RTVSPost2010Prop34
280
     0
102
RTVSPost2010PropOp34
 70
     1
102
RTVSPost2010Prop35
280
     0
102
RTVSPost2010PropOp35
 70
     1
102
RTVSPost2010Prop36
280
     0
102
RTVSPost2010PropOp36
 70
     1
102
RTVSPost2010Prop37
 90
       50
102
RTVSPost2010PropOp37
 70
     1
102
RTVSPost2010Prop38
140
0.0
102
RTVSPost2010PropOp38
 70
     1
102
RTVSPost2010Prop39
140
1.0
102
RTVSPost2010PropOp39
 70
     1
102
RTVSPost2010Prop40
 90
        0
102
RTVSPost2010PropOp40
 70
     1
102
RTVSPost2010Prop41ColorIndex
 90
       18
102
RTVSPost2010Prop41ColorRGB
 90
        0
102
RTVSPost2010PropOp41
 70
     1
102
RTVSPost2010Prop42
 90
       50
102
RTVSPost2010PropOp42
 70
     1
102
RTVSPost2010Prop43
 90
        3
102
RTVSPost2010PropOp43
 70
     1
102
RTVSPost2010Prop44ColorIndex
 90
        5
102
RTVSPost2010Prop44ColorRGB
 90
      255
102
RTVSPost2010PropOp44
 70
     1
102
RTVSPost2010Prop45
280
     0
102
RTVSPost2010PropOp45
 70
     1
102
RTVSPost2010Prop46
 90
       50
102
RTVSPost2010PropOp46
 70
     1
102
RTVSPost2010Prop47
 90
       50
102
RTVSPost2010PropOp47
 70
     1
102
RTVSPost2010Prop48
 90
       50
102
RTVSPost2010PropOp48
 70
     1
102
RTVSPost2010Prop49
280
     0
102
RTVSPost2010PropOp49
 70
     1
102
RTVSPost2010Prop50
 90
       50
102
RTVSPost2010PropOp50
 70
     1
102
RTVSPost2010Prop51ColorIndex
 90
      256
102
RTVSPost2010Prop51ColorRGB
 90
-16777216
102
RTVSPost2010PropOp51
 70
     0
102
RTVSPost2010Prop52
140
1.0
102
RTVSPost2010PropOp52
 70
     0
102
RTVSPost2010Prop53
 90
        2
102
RTVSPost2010PropOp53
 70
     1
102
RTVSPost2010Prop54
  1
strokes_ogs.tif
102
RTVSPost2010PropOp54
 70
     1
102
RTVSPost2010Prop55
280
     0
102
RTVSPost2010PropOp55
 70
     1
102
RTVSPost2010Prop56
140
1.0
102
RTVSPost2010PropOp56
 70
     1
102
RTVSPost2010Prop57
140
1.0
102
RTVSPost2010PropOp57
 70
     1
  0
XRECORD
  5
133
102
{ACAD_REACTORS
330
132
102
}
330
132
100
AcDbXrecord
280
     1
102
RTVSPost2010Prop28
280
     0
102
RTVSPost2010PropOp28
 70
     1
102
RTVSPost2010Prop29
280
     1
102
RTVSPost2010PropOp29
 70
     1
102
RTVSPost2010Prop30
280
     1
102
RTVSPost2010PropOp30
 70
     1
102
RTVSPost2010Prop31
280
     0
102
RTVSPost2010PropOp31
 70
     1
102
RTVSPost2010Prop32
280
     0
102
RTVSPost2010PropOp32
 70
     1
102
RTVSPost2010Prop33
280
     0
102
RTVSPost2010PropOp33
 70
     1
102
RTVSPost2010Prop34
280
     0
102
RTVSPost2010PropOp34
 70
     1
102
RTVSPost2010Prop35
280
     0
102
RTVSPost2010PropOp35
 70
     1
102
RTVSPost2010Prop36
280
     0
102
RTVSPost2010PropOp36
 70
     1
102
RTVSPost2010Prop37
 90
       50
102
RTVSPost2010PropOp37
 70
     1
102
RTVSPost2010Prop38
140
0.0
102
RTVSPost2010PropOp38
 70
     1
102
RTVSPost2010Prop39
140
1.0
102
RTVSPost2010PropOp39
 70
     1
102
RTVSPost2010Prop40
 90
        0
102
RTVSPost2010PropOp40
 70
     1
102
RTVSPost2010Prop41ColorIndex
 90
       18
102
RTVSPost2010Prop41ColorRGB
 90
        0
102
RTVSPost2010PropOp41
 70
     1
102
RTVSPost2010Prop42
 90
       50
102
RTVSPost2010PropOp42
 70
     1
102
RTVSPost2010Prop43
 90
        3
102
RTVSPost2010PropOp43
 70
     1
102
RTVSPost2010Prop44ColorIndex
 90
        5
102
RTVSPost2010Prop44ColorRGB
 90
      255
102
RTVSPost2010PropOp44
 70
     1
102
RTVSPost2010Prop45
280
     0
102
RTVSPost2010PropOp45
 70
     1
102
RTVSPost2010Prop46
 90
       50
102
RTVSPost2010PropOp46
 70
     1
102
RTVSPost2010Prop47
 90
       50
102
RTVSPost2010PropOp47
 70
     1
102
RTVSPost2010Prop48
 90
       50
102
RTVSPost2010PropOp48
 70
     1
102
RTVSPost2010Prop49
280
     0
102
RTVSPost2010PropOp49
 70
     1
102
RTVSPost2010Prop50
 90
       50
102
RTVSPost2010PropOp50
 70
     1
102
RTVSPost2010Prop51ColorIndex
 90
      256
102
RTVSPost2010Prop51ColorRGB
 90
-16777216
102
RTVSPost2010PropOp51
 70
     0
102
RTVSPost2010Prop52
140
1.0
102
RTVSPost2010PropOp52
 70
     0
102
RTVSPost2010Prop53
 90
        2
102
RTVSPost2010PropOp53
 70
     1
102
RTVSPost2010Prop54
  1
strokes_ogs.tif
102
RTVSPost2010PropOp54
 70
     1
102
RTVSPost2010Prop55
280
     0
102
RTVSPost2010PropOp55
 70
     1
102
RTVSPost2010Prop56
140
1.0
102
RTVSPost2010PropOp56
 70
     1
102
RTVSPost2010Prop57
140
1.0
102
RTVSPost2010PropOp57
 70
     1
  0
XRECORD
  5
12D
102
{ACAD_REACTORS
330
12C
102
}
330
12C
100
AcDbXrecord
280
     1
102
RTVSPost2010Prop28
280
     0
102
RTVSPost2010PropOp28
 70
     1
102
RTVSPost2010Prop29
280
     1
102
RTVSPost2010PropOp29
 70
     1
102
RTVSPost2010Prop30
280
     1
102
RTVSPost2010PropOp30
 70
     1
102
RTVSPost2010Prop31
280
     0
102
RTVSPost2010PropOp31
 70
     1
102
RTVSPost2010Prop32
280
     0
102
RTVSPost2010PropOp32
 70
     1
102
RTVSPost2010Prop33
280
     0
102
RTVSPost2010PropOp33
 70
     1
102
RTVSPost2010Prop34
280
     0
102
RTVSPost2010PropOp34
 70
     1
102
RTVSPost2010Prop35
280
     0
102
RTVSPost2010PropOp35
 70
     1
102
RTVSPost2010Prop36
280
     0
102
RTVSPost2010PropOp36
 70
     1
102
RTVSPost2010Prop37
 90
       50
102
RTVSPost2010PropOp37
 70
     1
102
RTVSPost2010Prop38
140
0.0
102
RTVSPost2010PropOp38
 70
     1
102
RTVSPost2010Prop39
140
1.0
102
RTVSPost2010PropOp39
 70
     1
102
RTVSPost2010Prop40
 90
        0
102
RTVSPost2010PropOp40
 70
     1
102
RTVSPost2010Prop41ColorIndex
 90
       18
102
RTVSPost2010Prop41ColorRGB
 90
        0
102
RTVSPost2010PropOp41
 70
     1
102
RTVSPost2010Prop42
 90
       50
102
RTVSPost2010PropOp42
 70
     1
102
RTVSPost2010Prop43
 90
        3
102
RTVSPost2010PropOp43
 70
     1
102
RTVSPost2010Prop44ColorIndex
 90
        5
102
RTVSPost2010Prop44ColorRGB
 90
      255
102
RTVSPost2010PropOp44
 70
     1
102
RTVSPost2010Prop45
280
     0
102
RTVSPost2010PropOp45
 70
     1
102
RTVSPost2010Prop46
 90
       50
102
RTVSPost2010PropOp46
 70
     1
102
RTVSPost2010Prop47
 90
       50
102
RTVSPost2010PropOp47
 70
     1
102
RTVSPost2010Prop48
 90
       50
102
RTVSPost2010PropOp48
 70
     1
102
RTVSPost2010Prop49
280
     0
102
RTVSPost2010PropOp49
 70
     1
102
RTVSPost2010Prop50
 90
       50
102
RTVSPost2010PropOp50
 70
     1
102
RTVSPost2010Prop51ColorIndex
 90
      256
102
RTVSPost2010Prop51ColorRGB
 90
-16777216
102
RTVSPost2010PropOp51
 70
     0
102
RTVSPost2010Prop52
140
1.0
102
RTVSPost2010PropOp52
 70
     0
102
RTVSPost2010Prop53
 90
        2
102
RTVSPost2010PropOp53
 70
     1
102
RTVSPost2010Prop54
  1
strokes_ogs.tif
102
RTVSPost2010PropOp54
 70
     1
102
RTVSPost2010Prop55
280
     0
102
RTVSPost2010PropOp55
 70
     1
102
RTVSPost2010Prop56
140
1.0
102
RTVSPost2010PropOp56
 70
     1
102
RTVSPost2010Prop57
140
1.0
102
RTVSPost2010PropOp57
 70
     1
  0
XRECORD
  5
12F
102
{ACAD_REACTORS
330
12E
102
}
330
12E
100
AcDbXrecord
280
     1
102
RTVSPost2010Prop28
280
     0
102
RTVSPost2010PropOp28
 70
     1
102
RTVSPost2010Prop29
280
     1
102
RTVSPost2010PropOp29
 70
     1
102
RTVSPost2010Prop30
280
     1
102
RTVSPost2010PropOp30
 70
     1
102
RTVSPost2010Prop31
280
     0
102
RTVSPost2010PropOp31
 70
     1
102
RTVSPost2010Prop32
280
     0
102
RTVSPost2010PropOp32
 70
     1
102
RTVSPost2010Prop33
280
     0
102
RTVSPost2010PropOp33
 70
     1
102
RTVSPost2010Prop34
280
     0
102
RTVSPost2010PropOp34
 70
     1
102
RTVSPost2010Prop35
280
     0
102
RTVSPost2010PropOp35
 70
     1
102
RTVSPost2010Prop36
280
     0
102
RTVSPost2010PropOp36
 70
     1
102
RTVSPost2010Prop37
 90
       50
102
RTVSPost2010PropOp37
 70
     1
102
RTVSPost2010Prop38
140
0.0
102
RTVSPost2010PropOp38
 70
     1
102
RTVSPost2010Prop39
140
1.0
102
RTVSPost2010PropOp39
 70
     1
102
RTVSPost2010Prop40
 90
        0
102
RTVSPost2010PropOp40
 70
     1
102
RTVSPost2010Prop41ColorIndex
 90
       18
102
RTVSPost2010Prop41ColorRGB
 90
        0
102
RTVSPost2010PropOp41
 70
     1
102
RTVSPost2010Prop42
 90
       50
102
RTVSPost2010PropOp42
 70
     1
102
RTVSPost2010Prop43
 90
        3
102
RTVSPost2010PropOp43
 70
     1
102
RTVSPost2010Prop44ColorIndex
 90
        5
102
RTVSPost2010Prop44ColorRGB
 90
      255
102
RTVSPost2010PropOp44
 70
     1
102
RTVSPost2010Prop45
280
     0
102
RTVSPost2010PropOp45
 70
     1
102
RTVSPost2010Prop46
 90
       50
102
RTVSPost2010PropOp46
 70
     1
102
RTVSPost2010Prop47
 90
       50
102
RTVSPost2010PropOp47
 70
     1
102
RTVSPost2010Prop48
 90
       50
102
RTVSPost2010PropOp48
 70
     1
102
RTVSPost2010Prop49
280
     0
102
RTVSPost2010PropOp49
 70
     1
102
RTVSPost2010Prop50
 90
       50
102
RTVSPost2010PropOp50
 70
     1
102
RTVSPost2010Prop51ColorIndex
 90
      256
102
RTVSPost2010Prop51ColorRGB
 90
-16777216
102
RTVSPost2010PropOp51
 70
     0
102
RTVSPost2010Prop52
140
1.0
102
RTVSPost2010PropOp52
 70
     0
102
RTVSPost2010Prop53
 90
        2
102
RTVSPost2010PropOp53
 70
     1
102
RTVSPost2010Prop54
  1
strokes_ogs.tif
102
RTVSPost2010PropOp54
 70
     1
102
RTVSPost2010Prop55
280
     0
102
RTVSPost2010PropOp55
 70
     1
102
RTVSPost2010Prop56
140
1.0
102
RTVSPost2010PropOp56
 70
     1
102
RTVSPost2010Prop57
140
1.0
102
RTVSPost2010PropOp57
 70
     1
  0
XRECORD
  5
125
102
{ACAD_REACTORS
330
124
102
}
330
124
100
AcDbXrecord
280
     1
102
RTVSPost2010Prop28
280
     0
102
RTVSPost2010PropOp28
 70
     1
102
RTVSPost2010Prop29
280
     1
102
RTVSPost2010PropOp29
 70
     1
102
RTVSPost2010Prop30
280
     1
102
RTVSPost2010PropOp30
 70
     1
102
RTVSPost2010Prop31
280
     0
102
RTVSPost2010PropOp31
 70
     1
102
RTVSPost2010Prop32
280
     0
102
RTVSPost2010PropOp32
 70
     1
102
RTVSPost2010Prop33
280
     0
102
RTVSPost2010PropOp33
 70
     1
102
RTVSPost2010Prop34
280
     0
102
RTVSPost2010PropOp34
 70
     1
102
RTVSPost2010Prop35
280
     0
102
RTVSPost2010PropOp35
 70
     1
102
RTVSPost2010Prop36
280
     0
102
RTVSPost2010PropOp36
 70
     1
102
RTVSPost2010Prop37
 90
       50
102
RTVSPost2010PropOp37
 70
     1
102
RTVSPost2010Prop38
140
0.0
102
RTVSPost2010PropOp38
 70
     1
102
RTVSPost2010Prop39
140
1.0
102
RTVSPost2010PropOp39
 70
     1
102
RTVSPost2010Prop40
 90
        0
102
RTVSPost2010PropOp40
 70
     1
102
RTVSPost2010Prop41ColorIndex
 90
       18
102
RTVSPost2010Prop41ColorRGB
 90
        0
102
RTVSPost2010PropOp41
 70
     1
102
RTVSPost2010Prop42
 90
       50
102
RTVSPost2010PropOp42
 70
     1
102
RTVSPost2010Prop43
 90
        3
102
RTVSPost2010PropOp43
 70
     1
102
RTVSPost2010Prop44ColorIndex
 90
        5
102
RTVSPost2010Prop44ColorRGB
 90
      255
102
RTVSPost2010PropOp44
 70
     1
102
RTVSPost2010Prop45
280
     0
102
RTVSPost2010PropOp45
 70
     1
102
RTVSPost2010Prop46
 90
       50
102
RTVSPost2010PropOp46
 70
     1
102
RTVSPost2010Prop47
 90
       50
102
RTVSPost2010PropOp47
 70
     1
102
RTVSPost2010Prop48
 90
       50
102
RTVSPost2010PropOp48
 70
     1
102
RTVSPost2010Prop49
280
     0
102
RTVSPost2010PropOp49
 70
     1
102
RTVSPost2010Prop50
 90
       50
102
RTVSPost2010PropOp50
 70
     1
102
RTVSPost2010Prop51ColorIndex
 90
      256
102
RTVSPost2010Prop51ColorRGB
 90
-16777216
102
RTVSPost2010PropOp51
 70
     0
102
RTVSPost2010Prop52
140
1.0
102
RTVSPost2010PropOp52
 70
     0
102
RTVSPost2010Prop53
 90
        2
102
RTVSPost2010PropOp53
 70
     1
102
RTVSPost2010Prop54
  1
strokes_ogs.tif
102
RTVSPost2010PropOp54
 70
     1
102
RTVSPost2010Prop55
280
     0
102
RTVSPost2010PropOp55
 70
     1
102
RTVSPost2010Prop56
140
1.0
102
RTVSPost2010PropOp56
 70
     1
102
RTVSPost2010Prop57
140
1.0
102
RTVSPost2010PropOp57
 70
     1
  0
XRECORD
  5
119
102
{ACAD_REACTORS
330
118
102
}
330
118
100
AcDbXrecord
280
     1
102
RTVSPost2010Prop28
280
     0
102
RTVSPost2010PropOp28
 70
     1
102
RTVSPost2010Prop29
280
     1
102
RTVSPost2010PropOp29
 70
     1
102
RTVSPost2010Prop30
280
     1
102
RTVSPost2010PropOp30
 70
     1
102
RTVSPost2010Prop31
280
     0
102
RTVSPost2010PropOp31
 70
     1
102
RTVSPost2010Prop32
280
     0
102
RTVSPost2010PropOp32
 70
     1
102
RTVSPost2010Prop33
280
     0
102
RTVSPost2010PropOp33
 70
     1
102
RTVSPost2010Prop34
280
     0
102
RTVSPost2010PropOp34
 70
     1
102
RTVSPost2010Prop35
280
     0
102
RTVSPost2010PropOp35
 70
     1
102
RTVSPost2010Prop36
280
     0
102
RTVSPost2010PropOp36
 70
     1
102
RTVSPost2010Prop37
 90
       50
102
RTVSPost2010PropOp37
 70
     1
102
RTVSPost2010Prop38
140
0.0
102
RTVSPost2010PropOp38
 70
     1
102
RTVSPost2010Prop39
140
1.0
102
RTVSPost2010PropOp39
 70
     1
102
RTVSPost2010Prop40
 90
        0
102
RTVSPost2010PropOp40
 70
     1
102
RTVSPost2010Prop41ColorIndex
 90
       18
102
RTVSPost2010Prop41ColorRGB
 90
        0
102
RTVSPost2010PropOp41
 70
     1
102
RTVSPost2010Prop42
 90
       50
102
RTVSPost2010PropOp42
 70
     1
102
RTVSPost2010Prop43
 90
        3
102
RTVSPost2010PropOp43
 70
     1
102
RTVSPost2010Prop44ColorIndex
 90
        5
102
RTVSPost2010Prop44ColorRGB
 90
      255
102
RTVSPost2010PropOp44
 70
     1
102
RTVSPost2010Prop45
280
     0
102
RTVSPost2010PropOp45
 70
     1
102
RTVSPost2010Prop46
 90
       50
102
RTVSPost2010PropOp46
 70
     1
102
RTVSPost2010Prop47
 90
       50
102
RTVSPost2010PropOp47
 70
     1
102
RTVSPost2010Prop48
 90
       50
102
RTVSPost2010PropOp48
 70
     1
102
RTVSPost2010Prop49
280
     0
102
RTVSPost2010PropOp49
 70
     1
102
RTVSPost2010Prop50
 90
       50
102
RTVSPost2010PropOp50
 70
     1
102
RTVSPost2010Prop51ColorIndex
 90
      256
102
RTVSPost2010Prop51ColorRGB
 90
-16777216
102
RTVSPost2010PropOp51
 70
     0
102
RTVSPost2010Prop52
140
1.0
102
RTVSPost2010PropOp52
 70
     0
102
RTVSPost2010Prop53
 90
        2
102
RTVSPost2010PropOp53
 70
     1
102
RTVSPost2010Prop54
  1
strokes_ogs.tif
102
RTVSPost2010PropOp54
 70
     1
102
RTVSPost2010Prop55
280
     0
102
RTVSPost2010PropOp55
 70
     1
102
RTVSPost2010Prop56
140
1.0
102
RTVSPost2010PropOp56
 70
     1
102
RTVSPost2010Prop57
140
1.0
102
RTVSPost2010PropOp57
 70
     1
  0
XRECORD
  5
131
102
{ACAD_REACTORS
330
130
102
}
330
130
100
AcDbXrecord
280
     1
102
RTVSPost2010Prop28
280
     0
102
RTVSPost2010PropOp28
 70
     1
102
RTVSPost2010Prop29
280
     1
102
RTVSPost2010PropOp29
 70
     1
102
RTVSPost2010Prop30
280
     1
102
RTVSPost2010PropOp30
 70
     1
102
RTVSPost2010Prop31
280
     0
102
RTVSPost2010PropOp31
 70
     1
102
RTVSPost2010Prop32
280
     0
102
RTVSPost2010PropOp32
 70
     1
102
RTVSPost2010Prop33
280
     0
102
RTVSPost2010PropOp33
 70
     1
102
RTVSPost2010Prop34
280
     0
102
RTVSPost2010PropOp34
 70
     1
102
RTVSPost2010Prop35
280
     0
102
RTVSPost2010PropOp35
 70
     1
102
RTVSPost2010Prop36
280
     0
102
RTVSPost2010PropOp36
 70
     1
102
RTVSPost2010Prop37
 90
       50
102
RTVSPost2010PropOp37
 70
     1
102
RTVSPost2010Prop38
140
0.0
102
RTVSPost2010PropOp38
 70
     1
102
RTVSPost2010Prop39
140
1.0
102
RTVSPost2010PropOp39
 70
     1
102
RTVSPost2010Prop40
 90
        0
102
RTVSPost2010PropOp40
 70
     1
102
RTVSPost2010Prop41ColorIndex
 90
       18
102
RTVSPost2010Prop41ColorRGB
 90
        0
102
RTVSPost2010PropOp41
 70
     1
102
RTVSPost2010Prop42
 90
       50
102
RTVSPost2010PropOp42
 70
     1
102
RTVSPost2010Prop43
 90
        3
102
RTVSPost2010PropOp43
 70
     1
102
RTVSPost2010Prop44ColorIndex
 90
        5
102
RTVSPost2010Prop44ColorRGB
 90
      255
102
RTVSPost2010PropOp44
 70
     1
102
RTVSPost2010Prop45
280
     0
102
RTVSPost2010PropOp45
 70
     1
102
RTVSPost2010Prop46
 90
       50
102
RTVSPost2010PropOp46
 70
     1
102
RTVSPost2010Prop47
 90
       50
102
RTVSPost2010PropOp47
 70
     1
102
RTVSPost2010Prop48
 90
       50
102
RTVSPost2010PropOp48
 70
     1
102
RTVSPost2010Prop49
280
     0
102
RTVSPost2010PropOp49
 70
     1
102
RTVSPost2010Prop50
 90
       50
102
RTVSPost2010PropOp50
 70
     1
102
RTVSPost2010Prop51ColorIndex
 90
      256
102
RTVSPost2010Prop51ColorRGB
 90
-16777216
102
RTVSPost2010PropOp51
 70
     0
102
RTVSPost2010Prop52
140
1.0
102
RTVSPost2010PropOp52
 70
     0
102
RTVSPost2010Prop53
 90
        2
102
RTVSPost2010PropOp53
 70
     1
102
RTVSPost2010Prop54
  1
strokes_ogs.tif
102
RTVSPost2010PropOp54
 70
     1
102
RTVSPost2010Prop55
280
     0
102
RTVSPost2010PropOp55
 70
     1
102
RTVSPost2010Prop56
140
1.0
102
RTVSPost2010PropOp56
 70
     1
102
RTVSPost2010Prop57
140
1.0
102
RTVSPost2010PropOp57
 70
     1
  0
ENDSEC
  0
EOF
